Home » M » Martin Sexton »

Martin Sexton - Boom Sh-Boom Tabs

Artists:  A B C D E F G H I J K L M N O P Q R S T U V W X Y Z # 

Boom Sh-Boom Tabs

(ver. 1) Click to play this song!
Martin Sexton
E|------------------------------------------------------------------------------------|
B|----7-----0h7-7-----7-7-------------------------------------------------------------|
G|------5---------5-------5-----------------------------------------------------------|
D|--------7---------7-------6-----------5---------5---------7-7-7-7-7-7---------------|
A|------------------------------------3---------3---------5---6-6-6-6-6---------------|
E|--------------------------------0h5-----0h5-5-----5/7-------7-7-7-7-7---------------|
                                                           ^
                                                      enter strumming

Note instead of playing it with a hammeron; you can simply pluck around on the lead string about 
thee times as a triplet, to create a similar tone.

ie.
E|------------------------------------------------------------------------------------|
B|----7-----7-7-7-----7-7-------------------------------------------------------------|
G|------5---------5-------5-----------------------------------------------------------|
D|--------7---------7-------6----------5---------5---------7-7-7-7-7-7----------------|
A|-----------------------------------3---------3---------6---6-6-6-6-6----------------|
E|---------------------------------5-----5-5-5-----5/7-------7-7-7-7-7----------------|

remember that once the intro is finished the first two verses continue with same rhythm as chords with less pause for effect and more strumming muting the desired strings to maintain effect of the intro without losing energy.
            
Submit corrections

↑ Back to top | Tablatures and chords for acoustic guitar and electric guitar, ukulele, drums are parodies/interpretations of the original songs. You may use it for private study, scholarship, research or language learning purposes only