Home » M » Marshall Tucker Band »

Marshall Tucker Band - Cattle Drive Tabs

Artists:  A B C D E F G H I J K L M N O P Q R S T U V W X Y Z # 

Cattle Drive Tabs

(ver. 1) Click to play this song!
Marshall Tucker Band
Cattle Drive - Tab
Marshall Tucker Band

Intro:
--------12--10-------------------12--10---------
-10--13----------13--10---10--13---------13--10-
------------------------------------------------
------------------------------------------------
------------------------------------------------
------------------------------------------------

     Am
------------------------------------------------
-----1--1-1--1--0------------1--1-1--1--0-------
-----2--2-2--------2--0------2--2-2--------2--0-
-----2--2-2------------------2--2-2-------------
--0-----------------------0---------------------
------------------------------------------------

        Am                            Fmaj7
--------0--0-----------0--0------------0--0-----
-----1--------3--1--3---------------1--------3--
--2------------------------------2--------------
------------------------------------------------
------------------------------------------------
------------------------------------------------

                    G6
--------0-----------0--0-----------0--0---------
--1--3-----------1--------3--1--3----------3--3-
--------------2---------------------------------
------------------------------------------------
------------------------------------------------
------------------------------------------------

                   Am
-------------------------------8---------8------
---3---3----1---0-------------------7---------6-
--------------------2---2-----------------------
------------------------------------------------
------------------------------------------------
------------------------------------------------

Am
Hired me on a greenhorn
              Fmaj7
Didn't know a rope from a horse
       G6
But I wanted to be a cowboy
      Am
So I took the job of course

The foreman he said "Son you gonna ride
      Fmaj7
At the end of my herd"
          G6
All the wranglers sat around in a circle
      Am
And nobody said a word
                 Fmaj7
'Cause there's a woman in my dreams
      G6
That keeps me alive
     Fmaj7
If I ever see her again
 E                                   Am
Lord I'll never ride drag on another cattle drive

Solo: Am Fmaj7 G6 Am   Am Fmaj7 G6 Am

           Am
There's a rumor goin' round
                  Fmaj7
That we're near a Kansas City town
                 G6
And when you're ridin drag on this cattle drive
                  Am
It takes 'bout a week for the word to get around
                 Fmaj7
'Cause there's a woman in my dreams
      G6
That keeps me alive
     Fmaj7
If I ever see her again
 E                                    Am
Lord I'll never ride drag on another cattle drive

Outro: Am Fmaj7 G6 Am

 
            
Submit corrections

↑ Back to top | Tablatures and chords for acoustic guitar and electric guitar, ukulele, drums are parodies/interpretations of the original songs. You may use it for private study, scholarship, research or language learning purposes only