» » »

Mark Tremonti - Arm Yourself Tabs

Artists:  A B C D E F G H I J K L M N O P Q R S T U V W X Y Z # 

Arm Yourself Tabs

(ver. 1) Click to play this song!
Mark Tremonti
 Rating:
3.2/5 (25 votes)

 Arm Yourself  lessons Tabs too difficult? Try these video lessons and learn fast
 
                Main Riff:
  
*play 3x
D |--------------------------|-------------------------||
A |--------------------------|-------------------------||
E |--------------------------|-------------------------||
C |--------------------------|-------------------------||
G |--------------------------|-------------------------||
C |-0---0-0--0--0-0-0--0--0--|-4-4-4-0-0-0-1-1-1-4-4-4-||
          P  P  P P P  P  P    PM all*****************


*End of main riff
|--------------------------|--------------|
|--------------------------|--------------|
|--------------------------|--------------|
|--------------------------|-PH-----------|
|--------------------------|-3b5r---------|
|-0---0-0--0--0-0-0--0--0--|--------------|
        P  P  P P P  P  P   


*For Verse, play Main Riff 3x as before then add these bars before the repeat:

|-------------|--------------|
|-------------|--------------|
|-------------|--------------|
|-3-----------|--------------|
|-1-----------|-3------------|
|-------------|-3------------|


*Pre-Chorus 4x - Main Riff plays with Second Guitar playing higher harmony:            

|--------------------------|----------------------------||
|--------------------------|-7-7-7----------------7-7-7-||
|--------------------------|-------9-9-9-10-10-10-------||
|--------------------------|----------------------------||
|--------------------------|----------------------------||
|-0---0-0--0--0-0-0--0--0--|----------------------------||
        P  P  P P P  P  P    PM all********************


*Chorus
|-------------------|------------------|-----------------|-----------------------|
|-------------------|------------------|-----------------|-----------------------|
|-------------------|------------------|-----------------|-----------------------|
|-------------------|------------------|-----------------|-----------------------|
|-2-----------------|--------8-8-8-8---------------------|-----------------------|
|-0--------7--7--7--|-8----------------|-3------3--2--1--|-0------8-8-0-0-7-7-0-0|
                              PM*****                                 PM*     PM*
(They say a man who fears will suffer twice, the fear has surely died)


|-------------------|------------------|-----------------|
|-------------------|------------------|-----------------|
|-------------------|------------------|-----------------|
|-------------------|------------------|-----------------|
|-2-----------------|-------8-8-8-8----|-----------------|back to Main Riff
|-0--------7--7--7--|-8----------------|-3------3--2--1--|

(I throw a curse right into the rising sun, today this wil all be done)


*Play Verse and Chorus again, but the pre chorus is only played twice.

*Bridge play 2x
|-------------------|------------------|
|-------------------|------------------|
|-------------------|------------------|
|-------------------|------------------|
|-------------------|------------------|
|-1--1--------------|--0---------(0)---|

!! During the bridge and solo there's a low volume distorted strummed chord progression going on
this can't be transposed without changing the key. So you could figure something out yourself
I just solo over it and improvise !!

*Solo (listen to song for timing)
|----------------------------------------|----------5----------------------------|
|--------10-/15----15p13\10--------------|------------8-~--------6-8-10-10b-10-8-|
|---9-/12-------------------16p12\9-12p9-|------9-7------------------------------|
|----------------------------------------|/9-------------------------------------|
|----------------------------------------|---------------------------------------|
|----------------------------------------|---------------------------------------|

|---------------------------------------|------------------------------------|
|-10-----10-8-----1b3----------10-8---8-|--7~--------------------------------|
|---------------------------------------|--------------1--2---------4----2---|
|------------------------8/10-------8---|--7~--------------------------------|
|---------------------------------------|------------------------------------|
|---------------------------------------|------------------------------------|

*Play Chorus 2x

*Play Main riff to end the song, but replace the harmonic on thr 5th fret with this: 
 4-4-4-0-0-0-1-1-1-4-4-4 All palm muted ofcourse

*Second part plays harmony on ending like this:
D |--------------------------|-------------------------||
A |--------------------------|-------------------------||
E |--------------------------|-4-4-4-1-1-1-2-2-2-4-4-4-||
C |--------------------------|-------------------------||
G |--------------------------|-------------------------||
C |-0---0-0--0--0-0-0--0--0--|-------------------------||
          P  P  P P P  P  P            
Submit corrections


        Arm Yourself  lessons Hard to play? Try these video lessons and learn fast Arm Yourself  lessons
        
↑ Back to top | Tablatures and chords for acoustic guitar and electric guitar, ukulele, drums are parodies/interpretations of the original songs. You may use it for private study, scholarship, research or language learning purposes only