» » »

Mark Robin - There Is No Other Name Bass

Artists:  A B C D E F G H I J K L M N O P Q R S T U V W X Y Z # 

There Is No Other Name Bass

(ver. 1) Click to play this song!
Mark Robin
 Rating:
4.2/5 (5 votes)

 There Is No Other Name lessons Tabs too difficult? Try these video lessons and learn fast
 
                -------------------------------------------------------------------------------
			     There is no other name - Robin marks
-------------------------------------------------------------------------------


Tuning:Standard (EADG)

G|---------------------------------------------|
D|------3-3-3----------------3-3-3-------------|
A|-----------------6-6-6-----------6-5-3-------|  X 4
E|-6-6---------3-3-------6-6-------------6-6-6-|

G|----------------------------------------------------------------------------|
D|---------------------------------------------------------------------333333-|
A|-6-6-8-8-----------6-6-8-8---------------------------------3-3-3-3-3--------|
E|---------6-6-6-6-6---------6-6-6-6-5-3-3-3-3-3-3-3-3-3-3-3------------------|

------------|
33033333333-|
------------| X1
------------|

G|---------------------------------------------|
D|------3-3-3----------------3-3-3-------------|
A|-----------------6-6-6-----------6-5-3-------|  X 2
E|-6-6---------3-3-------6-6-------------6-6-6-|

G|----------------------------------------------------------------------------|
D|---------------------------------------------------------------------333333-|
A|-6-6-8-8-----------6-6-8-8---------------------------------3-3-3-3-3--------|
E|---------6-6-6-6-6---------6-6-6-6-5-3-3-3-3-3-3-3-3-3-3-3------------------|

------------|
33033333333-|
------------| X1
------------|

G|---------------------------------------------|
D|------3-3-3----------------3-3-3-------------|
A|-----------------6-6-6-----------6-5-3-------|  X 4
E|-6-6---------3-3-------6-6-------------6-6-6-|

| /  slide up
| \  slide down
| h  hammer-on
| p  pull-off
| ~  vibrato
| +  harmonic
| x  Mute note
===============================================================================
if u have any questions/fix's for this tell me and ill see what i can do.
+ this is my first bass tab
            
Submit corrections


        There Is No Other Name lessons Hard to play? Try these video lessons and learn fast There Is No Other Name lessons
        
↑ Back to top | Tablatures and chords for acoustic guitar and electric guitar, ukulele, drums are parodies/interpretations of the original songs. You may use it for private study, scholarship, research or language learning purposes only