Home » M » Mark Lanegan »

Mark Lanegan - Hospital Roll Call Tabs

Artists:  A B C D E F G H I J K L M N O P Q R S T U V W X Y Z # 

Hospital Roll Call Tabs

(ver. 1) Click to play this song!
Mark Lanegan
           <>       <>      <>      <>
Intro: ​|-------------------0-------------|
       |-------------------0-------------|
       |--4----------------1-------------|
       |--4--------5-------2-------4-----|
       |--2--------5-------2----0--4-----|
       |--------0--3-------0-------2-----|

<> tremelo dives after each chord is played,
 
Verse:​
             Bm          G    Em    Bm
         Sixteen
 
Bridge-Riff:
G5 – E5 – F#5 - - Bm
 
Chorus/Solo:​

   Am/add9   Em/add9
|-----------------------------|
|--1---0h1p0------0h1p0-------|
|--2-----------0--------------|
|--2-----------2--------------|
|--0-----------2--------------|
|--------------0--------------|            
Submit corrections

↑ Back to top | Tablatures and chords for acoustic guitar and electric guitar, ukulele, drums are parodies/interpretations of the original songs. You may use it for private study, scholarship, research or language learning purposes only