Home » M » Mark Lanegan »

Mark Lanegan - Harvest Home Tabs

Artists:  A B C D E F G H I J K L M N O P Q R S T U V W X Y Z # 

Harvest Home Tabs

(ver. 1) Click to play this song!
Mark Lanegan
fig.1:
e-0--------0----------------0-----------0-------0---------------------
b---0--------0-----3---2--0---0-------0---0---0-----------0-------0---
g-----4--4-----4-4---2----------4-4-2-------0---------------0---0-----
d------------------------------------------------------0------2-------
a----------------------------------------------------2----------------
e--------------------------------------------------3------------------

fig.2:
  G5    A5   E5
e---------------------
b---------------------
g---------------------
d----------------2----
a---5-----7----2------
e-3----/5----0--------


______________VERSE___________________

fig.1 (x2)

fig.1
Happy in my harvest home

Walking the floors with the ghosts all alone
fig.1
Happy that I'm made of stone

The grief that I cause is my cause to atone
fig.2                 fig.2
Now black is a color, black is my name
fig.2                                      fig.2
When I need something to help me chase the devil away


_______________CHORUS______________________

chords:
  Em  D    A
e-7---10---5---
b-6---10---5---
g-9---11---6---
d-9---12---7---
a-7--------7---
e----------5---

Em         D          A
 The house   on fire
            Em
The fraying    high wire
         D        A
 Nothing   to say
        Em
The sky,   so grey
        D        A
I reap,   I sow
           Em
My harvest

My home

fig.2 (x4)

______________INSTRUMENTAL__________________

fig.3:
e-----------0------------0-3---0-3-----3----------
b---2---3-------3---2----------------5-------5----
g----------------------2-----5-------------4------ 
d-2---2---2---2---2----------------5-----2--------
a-------------------------------------------------
e-------------------------------------------------

fig.3 (x2)

_______________VERSE___________________

fig.1

fig.1
Happy in my harvest home

Walking the floors with the ghosts all alone
fig.1
Happy that I'm made of stone

The grief that I cause is my cause to atone
fig.2                 fig.2
Now black is a color, black is my name
fig.2                                      fig.2
When I need something to help me chase the devil away


_______________CHORUS_______________________

Em         D          A
 The house   on fire
            Em
The fraying    high wire
         D        A
 Nothing   to say
        Em
The sky,   so grey
        D        A
I reap,   I sow
           Em
My harvest

My home

Em         D          A
 The house   on fire
            Em
The fraying    high wire
         D        A
 Nothing   to say
        Em
The sky,   so grey
        D        A
I reap,   I sow
           Em
My harvest

My home

fig.2 (x4)
            
Submit corrections

↑ Back to top | Tablatures and chords for acoustic guitar and electric guitar, ukulele, drums are parodies/interpretations of the original songs. You may use it for private study, scholarship, research or language learning purposes only