Home » M » Mark Lanegan »

Mark Lanegan - Floor Of The Ocean Bass

Artists:  A B C D E F G H I J K L M N O P Q R S T U V W X Y Z # 

Floor Of The Ocean Bass

(ver. 1) Click to play this song!
Mark Lanegan
Tuning:Standard EADG

  Verse - Hard times, walking in the...
G|-------------------------------------------------------------------|
D|-------------------------------------------------------------------|
A|-----------------6-6-6-666-6-6-6-4-4-4-444-4-4-4-------------------|
E|-6-6-6-666-6-6-6---------------------------------6-6-6-666-66-6-6--|

G|-------------------------------------------------------------------|
D|-------------------------------------------------------------------|
A|-----------------6-6-6-666-6-6-6-4-4-4-444-4-4-4----------------4--|
E|-6-6-6-666-6-6-6---------------------------------6-6-6-666-6-646---|

G|-------------------------------------------------------------------|
D|-------------------------------------------------------------------|
A|-----------------6-6-6-666-6-6-6-4-4-4-444-4-4-4-------------------|
E|-6-6-6-666-6-6-6---------------------------------6-6-6-666-6-6464--|

  Chorus - Scars, bone and blood...
G|-------------------------------------------------------------------|
D|-88888888----------------------------------------------------------|
A|-----------------66666666666666666666444444444444----------------4-|
E|---------66666666---------------------------------6-6-6-666-6-646--|
                   |listen to this part for       |
                   |exact rhythm                  |

  Verse - Dump site, out along the roadside
G|-------------------------------------------------------------------|
D|-------------------------------------------------------------------|
A|-----------------6-6-6-666-6-6-6-4-4-4-444-4-4-4----------------4--| X2
E|-6-6-6-666-6-6-6---------------------------------6-6-6-666-6-646---|

  Chorus
G|-------------------------------------------------------------------|
D|-88888888----------------------------------------------------------|
A|-----------------66666666666666666666444444444444----------------4-|
E|---------66666666---------------------------------6-6-6-666-6-646--|

  Instrumental solo part
G|-------------------------------------------------------------------|
D|-------------------------------------------------------------------|
A|-77777777777777775555555555555555----------------------------------| X2
E|---------------------------------33333333333333335555555555555555--|

  Verse - Hard times, walking in the sunshine
G|-------------------------------------------------------------------|
D|-------------------------------------------------------------------|
A|-----------------6-6-6-666-6-6-6-4-4-4-444-4-4-4-------------------|
E|-6-6-6-666-6-6-6---------------------------------6-6-6-666-6-6464--|

G|-------------------------------------------------------------------|
D|-------------------------------------------------------------------|
A|-----------------6-6-6-666-6-6-6-4-4-4-444-4-4-4-------------------|
E|-6-6-6-666-6-6-6---------------------------------6-6-6-666-6-6-6---|

  Chorus
G|-------------------------------------------------------------------|
D|-88888888----------------------------------------------------------|
A|-----------------66666666666666666666444444444444----------------4-| X2
E|---------66666666---------------------------------6-6-6-666-6-646--|

G|-------------------------------------------------------------------|
D|-------------------------------------------------------------------|
A|-----------------6-6-6-666-6-6-6-4-4-4-444-4-4-4----------------4--|
E|-6-6-6-666-6-6-6---------------------------------6-6-6-666-6-646---|


G|-------------------------------------------------------------------|
D|-------------------------------------------------------------------|
A|-----------------6-6-6-666-6-6-6-4-4-4-444-4-4-4-------------------|
E|-6-6-6-666-6-6-6---------------------------------6-6-6-666-6-64646-|            
Submit corrections

↑ Back to top | Tablatures and chords for acoustic guitar and electric guitar, ukulele, drums are parodies/interpretations of the original songs. You may use it for private study, scholarship, research or language learning purposes only