» » »

Mark Knopfler - Are We In Trouble Now Tabs

Artists:  A B C D E F G H I J K L M N O P Q R S T U V W X Y Z # 

Are We In Trouble Now Tabs

(ver. 1) Click to play this song!
Mark Knopfler
 Rating:
4/5 (4 votes)


 Are We In Trouble Now lessons Tabs too difficult? Try these video lessons and learn fast
 
                Ablum: "Golden Heart"

Middle solo begins at about 1'36"

------------------------------------------|
------------------------------------------|
---7h9-9b11r9b11r9b11r9p7---9-7h9p7-------|
-7---------------------------------9--7---|
------------------------------------------|
------------------------------------------|
1'45"
---------------------------------------------------------|
--------------7h8p7-----------7h8p7-----10---------------|
-----7h9--9b11------9p7---9b11-----9p7-----9b11r9b11r9---|
----7----------------------------------------------------|
-/9------------------------------------------------------|
---------------------------------------------------------|
1'55"
-------------------------|
-------------------------|
-7--9p7\6----------------|
------------7h9p7--------|
-----------------9-------|
-------------------------|

Outro begins at 3'43"

-----------------------------------------------------------------|
------------------------------------7h8p7----(8)---7-8p7-----7---|
-------7-7h9/11---9b11--9-7-7---7h9----------------------9/11----|
-9p7h9-------------------------9---------------------------------|
-----------------------------------------------------------------|
-----------------------------------------------------------------|
3'59"
--------------------------|
--------------------------|
-9b11p9p7h9--7~~~--7h9----|
------------------9-------|
--------------------------|
--------------------------|
4'04"
-------------------------------------------------------------------------|
-------------7-------7-10--7---------7------------7h10-8-8--7h8p7---7-7--|
-------7h9/11----9b11-------9-7-7---7--9--7-9/11------------------9------|
-7-7h9-----------------------------9-------------------------------------|
-------------------------------------------------------------------------|
-------------------------------------------------------------------------|
4'20"
---------------------------------------------------------7----------|
--------------------------7--------------10--------10b12---7--------|
-9b11b9p7h9--7--6--7--9-9---7\6----7-7h9----9b11------------9-7-7---|
----------------7--7--9-9-------9-----------------------------------|
--------------------------------------------------------------------|
--------------------------------------------------------------------|
4'33"
----------------------------------------------------------------------|
--------------7---7h10--8-8~--7h8p7------------------7----------------|
-9b11r9p7h9/11----------------------9-7-9-9/11--9---9--9p7--9h11--9---|
--------------------------------------------------9-------------------|
----------------------------------------------------------------------|
----------------------------------------------------------------------|
4'48"
--------7-------------------------------------------------------------|
---10b12--10--8-7--10b12-10--7-----------7-8-7---7-10p8-8--7h8p7------|
-7-----------------------------7---7-7h9--------------------------9---|
---------------------------------9------------------------------------|
----------------------------------------------------------------------|
----------------------------------------------------------------------|
5'02"
-------7--9p7-------------------------10--12-9-10h12-10p9---------------|
-10b12-------10--7--7h8p7-------13b15---------------------12-10-----10--|
------------------7-------9------------------------------------12-11----|
------------------------------------------------------------------------|
------------------------------------------------------------------------|
------------------------------------------------------------------------|
5'13"
-------7-9-7----------------------------7------7---------------|
-10b12--------10-8-10p8p7--8p7p5--7h5-----10-8--10--8p7--------|
-------------------------------------7-------------------------|
---------------------------------------------------------------|
---------------------------------------------------------------|
---------------------------------------------------------------|
5'24"
------------------------------------------------------------------|
---------------------------7h8--7h8p7-----------------8-7---7-7---|
-9b11r9b11r9b11r9p7---9p7h9-----------9-7-----------7-----9-------|
------------------------------------------9---9p7h9---------------|
------------------------------------------------------------------|
------------------------------------------------------------------|
5'35"
--------------------------------------------------------------------|
-----7--8p7----7h10--7h10p7--7-10p8-----7---10----------------------|
-9b11-------9------------------------/7---9---9h11-9--9h11-9h11-9---|
-------------------------------------/7-----------------------------|
--------------------------------------------------------------------|
--------------------------------------------------------------------|
5'46"
--------------------------------------------------------------------|
-----------------10----10----10----10-------------------------------|
-7h9-7h9b11r9p7--9h11--9-----9h11--9---7h9--------------------------|
--------------------------12---------------9------------------------|
--------------------------------------------------------------------|
--------------------------------------------------------------------|

Note: "()" indicates a volume swell, not a ghost note.

This should be accurate. Hope it's of some use.
            
Submit corrections



        Are We In Trouble Now lessons Hard to play? Try these video lessons and learn fast Are We In Trouble Now lessons
        
↑ Back to top | Tablatures and chords for acoustic guitar and electric guitar, ukulele, drums are parodies/interpretations of the original songs. You may use it for private study, scholarship, research or language learning purposes only