Home » M » Marina And The Diamonds »

Marina And The Diamonds - Starstrukk Bass

Artists:  A B C D E F G H I J K L M N O P Q R S T U V W X Y Z # 

Starstrukk Bass

(ver. 1) Click to play this song!
Marina And The Diamonds
bass doesn't start until 1:25 "tight jeans......"

G|-----------------|
D|-0---------------|
A|-----3---3-------|
E|-------------3---|x2

1:43 bridge "coz i just set them up....."
G|------7-----------5--------|
D|----7-----------5----------|
A|-55-------3--33------------|
E|----------------------3----|x2

2:05 "i think i should know..."
G|--------------------|
D|-0-0----------------|
A|-----3-3--1-1--3-3--|
E|--------------------|x4

and it follows those lines. I'm sure i have missed some little scales in places but i 
can't work them out. enjoy.
            
Submit corrections

↑ Back to top | Tablatures and chords for acoustic guitar and electric guitar, ukulele, drums are parodies/interpretations of the original songs. You may use it for private study, scholarship, research or language learning purposes only