Home » M » Marina And The Diamonds »

Marina And The Diamonds - Sex Yeah Bass

Artists:  A B C D E F G H I J K L M N O P Q R S T U V W X Y Z # 

Sex Yeah Bass

(ver. 1) Click to play this song!
Marina And The Diamonds
Tuning: Standard

Intro (no bass)

Verse 
G|-----------------------------------------------------------------|
D|---------------------------------4-4-4-4-4-4-4-4-4-4-4-4-3-3-3-3-|
A|-----------------4-4-4-4-4-4-4-4---------------------------------| x 4
E|-6-6-6-6-6-6-6-6-------------------------------------------------|

Chorus
G|-----------------------------------------------------------------|
D|-------------------------------------------------------------3-6-|
A|---------------4-6-6-6-6-6-8-6-4-----------3-4-6-4-4-4-4-4-6-----| x 3
E|-2-2-2-2-2-4-6-------------------6-6-6-6-6-----------------------|

G|-----------------------------------------------------------------|
D|-------------------------------------------------4-4-4-4-3-3-3-3-|
A|---------------4-6-6-6-6-6-8-6-4-----------3-4-6-----------------| 
E|-2-2-2-2-2-4-6-------------------6-6-6-6-6-----------------------|

Interlude
G|-----------------------------------------------------------------|
D|-------------------------------------------------444-333---------|
A|---------------4-6-6-6-6-6-8-6-4-----------3-4-6---------666-444-|
E|-2-2-2-2-2-4-6-------------------6-6-6-6-6-----------------------|

Verse (same as before)

Chorus (same as before)

Interlude x 2 (same as before)

Bridge
G|------------------------------------------------------------------|
D|-----------------4-4-4-4-4-4-4-4\---------------------------------|
A|-6-6-6-6-6-6-6-6----------------------------------4-4-4-4-4-4-4-4-| x 3
E|----------------------------------6-6-6-6-6-6-6-6-----------------|

G|----------------------------------|
D|-----------------4-4-4-4-4-4-4-4\-|
A|-6-6-6-6-6-6-6-6------------------| 
E|----------------------------------|

            
Submit corrections

↑ Back to top | Tablatures and chords for acoustic guitar and electric guitar, ukulele, drums are parodies/interpretations of the original songs. You may use it for private study, scholarship, research or language learning purposes only