Home » M » Marina And The Diamonds »

Marina And The Diamonds - Miss Y Bass

Artists:  A B C D E F G H I J K L M N O P Q R S T U V W X Y Z # 

Miss Y Bass

(ver. 1) Click to play this song!
Marina And The Diamonds
Intro (no bass)

Verse I
G|-----------------|-----------------|-----------------|-----------------|
D|-----------------|-----------------|-----------------|-----------------|
A|-----------------|-----------------|-----------------|-----------------|
E|-2-----5-----0---|-2-----5-----0---|-2-----5-----0---|-2-2---2-2---2---|

G|-----------------|-----------------|-----------------|-----------------|
D|-----------------|-----------------|-----------------|-----------------|
A|-----------------|-----------------|-----------------|-----------------|
E|-2-----5-----0---|-2-----5-----0---|-2-----5-----0---|-2----/14---12---|

Pre-Chorus I
G|-----------------|-----------------|-----------------|-----------------|
D|-----------------|-----------------|-----------------|-----------------|
A|-5-5-5-5-5-5-5-5-|-2-2-2-2-2-2-2-2-|-5-5-5-5-5-5-5-5-|-7-7-7-7-7-7-----|
E|-----------------|-----------------|-----------------|-----------------|

Chorus
G|---------------2-|-1-------------1-|-----------------|-----------------|
D|-----------------|---4-2-2-2-2-2---|-4-2-------------|-----------------|
A|-----------------|-----------------|-----5-5-5-5-5-5-|-5-5-5-----------|
E|-2-2-2-2-2-2-2---|-----------------|-----------------|-------0-0-0-4-4-|

G|---------------2-|-1-------------1-|-----------------|-----------------|
D|-----------------|---4-2-2-2-2-2---|-4-2-------------|-----------------|
A|-----------------|-----------------|-----5-5-5-5-5-5-|-5-5-5-----------|
E|-2-2-2-2-2-2-2---|-----------------|-----------------|-------0-0-0-4-4-|

G|---------------2-|-1-------------1-|-----------------|-----------------|
D|-----------------|---4-2-2-2-2-2---|-4-2-------------|-----------------|
A|-----------------|-----------------|-----5-5-5-5-5-5-|-5-5-5-----------|
E|-2-2-2-2-2-2-2---|-----------------|-----------------|-------0-0-0-4-4-|

G|---------------2-|-1-------------1-|-----------------|-----------------|
D|-----------------|---4-2-2-2-2-2---|-4-2-------------|-----------------|
A|-----------------|-----------------|-----5-5-5-5-5-5-|-5-5-5-----------|
E|-2-2-2-2-2-2-2---|-----------------|-----------------|-------0-0-0-4-4-|

Post-Chorus
G|-----------------|-----------------|-----------------|-----------------|
D|-----------------|-----------------|-----------------|-----------------|
A|-----------------|-----------------|-----------------|-----------------|
E|-----------------|-----------------|-----------------|-----------------|

Verse II
G|-----------------|-----------------|-----------------|-----------------|
D|-----------------|-----------------|-----------------|-----------------|
A|-----------------|-----------------|-----------------|-----------------|
E|-2-----5-----0---|-2-----5-----0---|-2-----5-----0---|-2-2---2-2---2---|

G|-----------------|-----------------|-----------------|-----------------|
D|-----------------|-----------------|-----------------|-----------------|
A|-----------------|-----------------|-----------------|-----------------|
E|-2-----5-----0---|-2-----5-----0---|-2-----5-----0---|-2----/14---12---|

Pre-Chorus II
G|-----------------|-----------------|-----------------|-----------------|
D|-----------------|-----------------|-----------------|-----------------|
A|-5-5-5-5-5-5-5-5-|-2-2-2-2-2-2-2-2-|-5-5-5-5-5-5-5-5-|-7-7-7-7-7-7-----|
E|-----------------|-----------------|-----------------|-----------------|

Chorus II
G|---------------2-|-1-------------1-|-----------------|-----------------|
D|-----------------|---4-2-2-2-2-2---|-4-2-------------|-----------------|
A|-----------------|-----------------|-----5-5-5-5-5-5-|-5-5-5-----------|
E|-2-2-2-2-2-2-2---|-----------------|-----------------|-------0-0-0-4-4-|

G|---------------2-|-1-------------1-|-----------------|-----------------|
D|-----------------|---4-2-2-2-2-2---|-4-2-------------|-----------------|
A|-----------------|-----------------|-----5-5-5-5-5-5-|-5-5-5-----------|
E|-2-2-2-2-2-2-2---|-----------------|-----------------|-------0-0-0-4-4-|

G|---------------2-|-1-------------1-|-----------------|-----------------|
D|-----------------|---4-2-2-2-2-2---|-4-2-------------|-----------------|
A|-----------------|-----------------|-----5-5-5-5-5-5-|-5-5-5-----------|
E|-2-2-2-2-2-2-2---|-----------------|-----------------|-------0-0-0-4-4-|

G|---------------2-|-1-------------1-|-----------------|-----------------|
D|-----------------|---4-2-2-2-2-2---|-4-2-------------|-----------------|
A|-----------------|-----------------|-----5-5-5-5-5-5-|-5-5-5-----------|
E|-2-2-2-2-2-2-2---|-----------------|-----------------|-------0-0-0-4-4-|

Post-Chorus II
G|-----------------|-----------------|-----------------|-----------------|
D|-----------------|-----------------|-----------------|-----------------|
A|-----------------|-----------------|-----------------|-----------------|
E|-----------------|-----------------|-----------------|-----------------|

G|-----------------|-----------------|-----------------|-----------------|
D|-----------------|-----------------|-----------------|-----------------|
A|-----------------|-----------------|-----------------|-----------------|
E|-----------------|-----------------|-----------------|-----------------|

Pre-Chorus III
G|-----------------|-----------------|-----------------|-----------------|
D|-----------------|-----------------|-----------------|-----------------|
A|-5-5-5-5-5-5-5-5-|-2-2-2-2-2-2-2-2-|-5-5-5-5-5-5-5-5-|-7-7-7-7-7-7-----|
E|-----------------|-----------------|-----------------|-----------------|

Chorus III
G|---------------2-|-1-------------1-|-----------------|-----------------|
D|-----------------|---4-2-2-2-2-2---|-4-2-------------|-----------------|
A|-----------------|-----------------|-----5-5-5-5-5-5-|-5-5-5-----------|
E|-2-2-2-2-2-2-2---|-----------------|-----------------|-------0-0-0-4-4-|

G|---------------2-|-1-------------1-|-----------------|-----------------|
D|-----------------|---4-2-2-2-2-2---|-4-2-------------|-----------------|
A|-----------------|-----------------|-----5-5-5-5-5-5-|-5-5-5-----------|
E|-2-2-2-2-2-2-2---|-----------------|-----------------|-------0-0-0-4-4-|

G|---------------2-|-1-------------1-|-----------------|-----------------|
D|-----------------|---4-2-2-2-2-2---|-4-2-------------|-----------------|
A|-----------------|-----------------|-----5-5-5-5-5-5-|-5-5-5-----------|
E|-2-2-2-2-2-2-2---|-----------------|-----------------|-------0-0-0-4-4-|

G|---------------2-|-1-------------1-|-----------------|-----------------|
D|-----------------|---4-2-2-2-2-2---|-4-2-------------|-----------------|
A|-----------------|-----------------|-----5-5-5-5-5-5-|-5-5-5-----------|
E|-2-2-2-2-2-2-2---|-----------------|-----------------|-------0-0-0-4-4-|

Outro (no bass)            
Submit corrections

↑ Back to top | Tablatures and chords for acoustic guitar and electric guitar, ukulele, drums are parodies/interpretations of the original songs. You may use it for private study, scholarship, research or language learning purposes only