» » »

Marie Digby - Miss Invisible Tabs

Artists:  A B C D E F G H I J K L M N O P Q R S T U V W X Y Z # 

Miss Invisible Tabs

(ver. 1) Click to play this song!
Marie Digby
 Rating:
4/5 (4 votes)

 Miss Invisible lessons Tabs too difficult? Try these video lessons and learn fast
 
                Okay so I've already posted the CHORDS to this song.. here are the tabs I made up just 
make it sound a little bit like the piano in the song! yeah it's not 100% the same but it 
sounds pretty cool!
Please rate :)
thanks!

♪♫♪ CAP0: 1st FRET ♪♫

[Verse 1:]
      D     D      G      G      Bm    Bm      G     G
e|---2------2------3------3-------2-----2------3-----3-----|
B|-----3------3------3-------3------3-----3------3-----3---|
G|-------2------2------0-------0------4-----4------0-----0-|
D|---------------------------------------------------------|
A|---------------------------------------------------------|
E|---------------------------------------------------------|
         (D)(D)        (G)       (G)
Theres a girl who sits under the bleachers
      (Bm)       (Bm)   (G)     (G)
Just another day eating alone

     D     D      G      G      Bm    Bm      G     G
e|---2------2------3------3-------2-----2------3-----3-----|
B|-----3------3------3-------3------3-----3------3-----3---|
G|-------2------2------0-------0------4-----4------0-----0-|
D|---------------------------------------------------------|
A|---------------------------------------------------------|
E|---------------------------------------------------------|
               (D)  (D)        (G)             (G)
And though she smiles there is something she's hiding
        (Bm)        (Bm)      (G)   (G)
And she cant find a way to relate


[PreChorus:]
    Bm            G            D            G
e|--2-----2-------3-----3------2-----2------3-----3--------|
B|--3-3-----3-----3-3-----3----3-3-----3----3-3-----3------|
G|--4---4-----4---0---0-----0--2---2-----2--0---2-----2----|
D|--4-------------0------------0------------0--------------|
A|----------------2-------------------------2--------------|
E|----------------3-------------------------3--------------|
   (Bm)            (G)
But she just goes unnoticed
        (D)         (G)
As the crowd passes by

    Bm           G           D            G           G
e|--2-----2------3-----3-----2-----2------3-----3-----3-----3------|
B|--3-4-----3----3-3-----3---3-2-----3----3-3-----3---3-3-----3----|
G|--4---3-----4--0---0----0--2---3-----2--0---0-----0-0---0-----0~-|
D|--4------------0-----------0------------0-----------0------------|
A|--2------------2------------------------2-----------2------------|
E|---------------3------------------------3-----------3------------|
     (Bm)                (G)
And she'll pretend to be busy
           (D)                (G)
When inside she just wants to cry
(G)
And she'll say


[Chorus:]

    D       D        G       G       Bm      Bm       G       G
e|--2----3--2--2-----3----3--3--3----2----3--2--2-----3----3--3--3-----|
B|--3--2----3----3---3--3----3----3--3--2----3----3---3--3----3----3---|
G|--2-------2--------0-------0-------4-------4--------0-------0--------|
D|--0-------0--------0-------0-------4-------4--------0-------0--------|
A|-------------------2-------2-------2-------2--------2-------2--------|
E|-------------------3-------3------------------------3-------3--------|
(D)           (D)         (G)          (G)      (Bm)
Take a little look at the life of Miss always Invisible,
(Bm)
look a little harder I

    D       D        G       G       Bm      Bm       G       G
e|--2----3--2--2-----3----3--3--3----2----3--2--2-----3----3--3--3-----|
B|--3--2----3----3---3--3----3----3--3--2----3----3---3--3----3----3---|
G|--2-------2--------0-------0-------4-------4--------0-------0--------|
D|--0-------0--------0-------0-------4-------4--------0-------0--------|
A|-------------------2-------2-------2-------2--------2-------2--------|
E|-------------------3-------3------------------------3-------3--------|

(D)          (D)          (G)     (G)     (Bm)    (Bm)  (G) (G)
Really really want you to put yourself in her shoes

    D       D        G       G       Bm      Bm       G       G
e|--2----3--2--2-----3----3--3--3----2----3--2--2-----3----3--3--3-----|
B|--3--2----3----3---3--3----3----3--3--2----3----3---3--3----3----3---|
G|--2-------2--------0-------0-------4-------4--------0-------0--------|
D|--0-------0--------0-------0-------4-------4--------0-------0--------|
A|-------------------2-------2-------2-------2--------2-------2--------|
E|-------------------3-------3------------------------3-------3--------|
(D)          (D)        (G)           (G)       (Bm)
Take another look at the face of Miss always Invisible
(Bm)          (G)       (G)
Look a little closer and

    D       D        G       G       Bm      Bm       G       G
e|--2----3--2--2-----3----3--3--3----2----3--2--2-----3----3--3--3-----|
B|--3--2----3----3---3--3----3----3--3--2----3----3---3--3----3----3---|
G|--2-------2--------0-------0-------4-------4--------0-------0--------|
D|--0-------0--------0-------0-------4-------4--------0-------0--------|
A|-------------------2-------2-------2-------2--------2-------2--------|
E|-------------------3-------3------------------------3-------3--------|
(D)        (D)           (G)        (G)        (Bm)
maybe then you will see why she waits for the day
(Bm)        (G)         (G)
When you'll ask her her name

    D       D        G              Bm      Bm       G
e|--2-------2--------3-----3-------2-------2--------3-----3--------|
B|--3---3---3-2------3---3---3-----3---3---3--4-----3---3---3------|
G|--2-2-----2----3---0-0-------0---4-4-----4----3---0-0-------0----|
D|--0-------0--------0-------------4-------4--------0--------------|
A|-------------------2-------------2-------2--------2--------------|
E|-------------------3------------------------------3--------------|

[Verse 2:]
    D       D        G      G      Bm      Bm       G      G
e|--2-------2--------3------3------2-------2--------3------3-------|
B|--3---3---3-2------3---3--3-3----3---3---3--4-----3---3--3-3-----|
G|--2-2-----2----3---0-0----0---0--4-4-----4----3---0-0----0---0---|
D|--0-------0--------0------0------4-------4--------0------0-------|
A|-------------------2------2------2-------2--------2------2-------|
E|-------------------3------3-----------------------3------3-------|
      (D)    (D)      (G)          (G)
The beginning in the first weeks of class
        (Bm)          (Bm)         (G)    (G)
She did everything to try and fit in

    D       D        G      G      Bm      Bm       G      G
e|--2-------2--------3------3------2-------2--------3------3-------|
B|--3---3---3-2------3---3--3-3----3---3---3--4-----3---3--3-3-----|
G|--2-2-----2----3---0-0----0---0--4-4-----4----3---0-0----0---0---|
D|--0-------0--------0------0------4-------4--------0------0-------|
A|-------------------2------2------2-------2--------2------2-------|
E|-------------------3------3-----------------------3------3-------|
        (D)    (D)           (G)         (G)
But the others, they couldnt seem to get past
        (Bm)          (Bm)            (G)     (G)
all the things that mismatched on the surface


[PreChorus:]
    Bm            G            D            G
e|--2-----2-------3-----3------2-----2------3-----3--------|
B|--3-3-----3-----3-3-----3----3-3-----3----3-3-----3------|
G|--4---4-----4---0---0-----0--2---2-----2--0---2-----2----|
D|--4-------------0------------0------------0--------------|
A|----------------2-------------------------2--------------|
E|----------------3-------------------------3--------------|
    (Bm)                  (G)
And she would close her eyes when they laughed as she
(D)            (G)
fell down the stairs
    Bm           G           D            G           G
e|--2-----2------3-----3-----2-----2------3-----3-----3-----3------|
B|--3-4-----3----3-3-----3---3-2-----3----3-3-----3---3-3-----3----|
G|--4---3-----4--0---0----0--2---3-----2--0---0-----0-0---0-----0~-|
D|--4------------0-----------0------------0-----------0------------|
A|--2------------2------------------------2-----------2------------|
E|---------------3------------------------3-----------3------------|
        (Bm)                         (G)
And the more that they joked and the more that they screamed
    (D)                    (G)
She retreated to where she is now
(G)
And she'll sing


[Chorus:]

    D       D        G       G       Bm      Bm       G       G
e|--2----3--2--2-----3----3--3--3----2----3--2--2-----3----3--3--3-----|
B|--3--2----3----3---3--3----3----3--3--2----3----3---3--3----3----3---|
G|--2-------2--------0-------0-------4-------4--------0-------0--------|
D|--0-------0--------0-------0-------4-------4--------0-------0--------|
A|-------------------2-------2-------2-------2--------2-------2--------|
E|-------------------3-------3------------------------3-------3--------|
(D)           (D)         (G)          (G)      (Bm)
Take a little look at the life of Miss always Invisible,
(Bm)
look a little harder I

    D       D        G       G       Bm      Bm       G       G
e|--2----3--2--2-----3----3--3--3----2----3--2--2-----3----3--3--3-----|
B|--3--2----3----3---3--3----3----3--3--2----3----3---3--3----3----3---|
G|--2-------2--------0-------0-------4-------4--------0-------0--------|
D|--0-------0--------0-------0-------4-------4--------0-------0--------|
A|-------------------2-------2-------2-------2--------2-------2--------|
E|-------------------3-------3------------------------3-------3--------|

(D)          (D)          (G)     (G)     (Bm)    (Bm)  (G) (G)
Really really want you to put yourself in her shoes

    D       D        G       G       Bm      Bm       G       G
e|--2----3--2--2-----3----3--3--3----2----3--2--2-----3----3--3--3-----|
B|--3--2----3----3---3--3----3----3--3--2----3----3---3--3----3----3---|
G|--2-------2--------0-------0-------4-------4--------0-------0--------|
D|--0-------0--------0-------0-------4-------4--------0-------0--------|
A|-------------------2-------2-------2-------2--------2-------2--------|
E|-------------------3-------3------------------------3-------3--------|
(D)          (D)        (G)           (G)       (Bm)
Take another look at the face of Miss always Invisible
(Bm)          (G)       (G)
Look a little closer and

    D       D        G       G       Bm      Bm       G       G
e|--2----3--2--2-----3----3--3--3----2----3--2--2-----3----3--3--3-----|
B|--3--2----3----3---3--3----3----3--3--2----3----3---3--3----3----3---|
G|--2-------2--------0-------0-------4-------4--------0-------0--------|
D|--0-------0--------0-------0-------4-------4--------0-------0--------|
A|-------------------2-------2-------2-------2--------2-------2--------|
E|-------------------3-------3------------------------3-------3--------|
(D)        (D)           (G)        (G)        (Bm)
maybe then you will see why she waits for the day
(Bm)        (G)         (G)
When you'll ask her her name

    D       D        G              Bm      Bm       G
e|--2-------2--------3-----3-------2-------2--------3-----3--------|
B|--3---3---3-2------3---3---3-----3---3---3--4-----3---3---3------|
G|--2-2-----2----3---0-0-------0---4-4-----4----3---0-0-------0----|
D|--0-------0--------0-------------4-------4--------0--------------|
A|-------------------2-------------2-------2--------2--------------|
E|-------------------3------------------------------3--------------|

[Bridge:]

    D       D        G              Bm      Bm       G
e|--2-------2--------3-----3-------2-------2--------3-----3--------|
B|--3---3---3-2------3---3---3-----3---3---3--4-----3---3---3------|
G|--2-2-----2----3---0-0-------0---4-4-----4----3---0-0-------0----|
D|--0-------0--------0-------------4-------4--------0--------------|
A|-------------------2-------------2-------2--------2--------------|
E|-------------------3------------------------------3--------------|
  Oooh, Ooh, OohOohOoh             Oooh, Ooh, OohOohOoh

    D       D        Am    Am      Em      Em       G
e|--2-------2--------0-----0-------0-------0--------3-----3--------|
B|--3---3---3-2------1---1-1-1-----0---0---0--0-----3---3---3------|
G|--2-2-----2----3---2-2---2---2---0-0-----0----0---0-0-------0----|
D|--0-------0--------2-----2-------2-------2--------0--------------|
A|-------------------0-----0-------2-------2--------2--------------|
E|-------------------0-----0-------0-------0--------3--------------|
Oooohhh...

    D       D        Am    Am      Em      Em       G
e|--2-------2--------0-----0-------0-------0--------3-----3------3-|
B|--3---3---3-2------1---1-1-1-----0---0---0--0-----3---3---3----3-|
G|--2-2-----2----3---2-2---2---2---0-0-----0----0---0-0-------0~-0-|
D|--0-------0--------2-----2-------2-------2--------0------------0-|
A|-------------------0-----0-------2-------2--------2------------2-|
E|-------------------0-----0-------0-------0--------3------------3-|
Oooohhh...

[Outro:]

      D     D      G      G      Bm    Bm      G     G
e|---2------2------3------3-------2-----2------3-----3-----|
B|-----3------3------3-------3------3-----3------3-----3---|
G|-------2------2------0-------0------4-----4------0-----0-|
D|---------------------------------------------------------|
A|---------------------------------------------------------|
E|---------------------------------------------------------|
         (D)(D)       (G)         (G)
Then one day just the same as the last
       (Bm)         (Bm)        (G)    (G)
Just a day spending counting the time

      D     D      G      G      Bm    Bm       | G  or  D
e|---2------2------3------3-------2-----2-------|-3------2--|
B|-----3------3------3-------3------3-----3-----|-3------3--|
G|-------2------2------0-------0------4-----4---|-0------2--|
D|----------------------------------------------|-0------0--|
A|----------------------------------------------|-2---------|
E|----------------------------------------------|-3---------|
       (D)(D)      (G)       (G)
Came a boy who sat under the bleachers
       (Bm)      (Bm)       (G)
just a little bit further behind.

End on G or D!
            
Submit corrections


        Miss Invisible lessons Hard to play? Try these video lessons and learn fast Miss Invisible lessons
        
↑ Back to top | Tablatures and chords for acoustic guitar and electric guitar, ukulele, drums are parodies/interpretations of the original songs. You may use it for private study, scholarship, research or language learning purposes only