» » »

Marianas Trench - Only The Lonely Survive Tabs

Artists:  A B C D E F G H I J K L M N O P Q R S T U V W X Y Z # 

Only The Lonely Survive Tabs

(ver. 1) Click to play this song!
Marianas Trench
 Rating:
4.3/5 (19 votes)

 Only The Lonely Survive lessons Tabs too difficult? Try these video lessons and learn fast
 
                [Intro]
e|--------------------------------2x-|
B|------12~---10~---10~--------------|
G|-9~---------------------9~-11~-----|
D|-----------------------------------|
A|-----------------------------------|
E|-----------------------------------|

[Verse]
e|---------9~------------------12~--------------------------------------------------12~-----------9~---------|
B|---------10~--10~------------12~-12~-10~-----------------12~----10~---------------12~-12~-10~---10~-9~--7~-|
G|-9~\-4~--9~---9~--9~--11~----9~--11~-9~-------9~--11~----9~--11-9~------9~--11~---9~--11~-9~----9~--9~--8~-|
D|-9~\-4~--(2~)-----11~-9~---------9~--7~-------11~-9~---------9~-7~------11~-9~--------9~--7~--------11~-9~-|
A|-7~\-2~--(0~)----------------------------------------------------------------------------------------------|
E|-----------------------------------------------------------------------------------------------------------|

[Chorus (4x)]
e|-0~----0~--0~----0~----9~---7~---|
B|-0~----0~--0~----0~----9~---7~---|
G|-1~----8~--6~----9~----9~---8~---|
D|-2~----9~--7~----9~----11~--9~---|
A|-2~----9~--7~----7~----11~--9~---|
E|-0~----7~--5~----0~----9~---7~---|

[Re-intro/verse 2]
e|-------------------------------|
B|----12~--10~-----10~-----------|
G|-9~-------------------9~--11~--|
D|-------------------------------|
A|-------------------------------|
E|-------------------------------|

[Verse]
e|---------9~------------------12~--------------------------------------------------12~-----------9~---------|
B|---------10~--10~------------12~-12~-10~-----------------12~----10~---------------12~-12~-10~---10~-9~--7~-|
G|-9~\-4~--9~---9~--9~--11~----9~--11~-9~-------9~--11~----9~--11-9~------9~--11~---9~--11~-9~----9~--9~--8~-|
D|-9~\-4~--(2~)-----11~-9~---------9~--7~-------11~-9~---------9~-7~------11~-9~--------9~--7~--------11~-9~-|
A|-7~\-2~--(0~)----------------------------------------------------------------------------------------------|
E|-----------------------------------------------------------------------------------------------------------|

[Chorus (4x)]
e|-0~----0~--0~----0~----9~---7~---|
B|-0~----0~--0~----0~----9~---7~---|
G|-1~----8~--6~----9~----9~---8~---|
D|-2~----9~--7~----9~----11~--9~---|
A|-2~----9~--7~----7~----11~--9~---|
E|-0~----7~--5~----0~----9~---7~---|

[SOLO (w/ chorus fx)]
e|------------------------------------------------------|
B|-----------------------------------------7-7-7~-7-7-7-|
G|-------/16~---14-13----/13~-11\9-9~-------------------|
D|-9~--9------------------------------------------------|
A|------------------------------------------------------|
E|---------------------------------------------------2x-|

[Bridge]
e|-0~-----0~-----0~----0~-------12~------9~---------9---7~-----12~------9~---\----|
B|-0~-----0~-----0~----0~-------12~------10~--------10~-7~-----12~------10~--\----|
G|-6~-----8~-----6~----8~-------9~---11~-9~-----9~--11~-8~-----9~---11~-9~---\----|
D|-7~-----9~-----6~----9~------------9~---------11~-11~-------------9~------------|
A|-7~-----9~-----4~----6~---------------------------------------------------------|
E|-5~-----7~----------------------------------------------------------------------|

[Final Chorus]
e|-0~----0~--0~----0~----9~---7~-----|
B|-0~----0~--0~----0~----9~---7~-----|
G|-1~----8~--6~----9~----9~---8~-----|
D|-2~----9~--7~----9~----11~--9~-----|
A|-2~----9~--7~----7~----11~--9~-----|
E|-0~----7~--5~----0~----9~---7~--2x-|

[Outro w/ chorus fx)]
e|------------------------------------------------------|-0~--------|
B|-----------------------------------------7-7-7~-7-7-7-|-0~--------|
G|-------/16~---14-13----/13~-11\9-9~-------------------|-6~--------|
D|-9~--9------------------------------------------------|-7~--------|
A|------------------------------------------------------|-7~--------|
E|---------------------------------------------------2x-|-5~--------|            
Submit corrections


        Only The Lonely Survive lessons Hard to play? Try these video lessons and learn fast Only The Lonely Survive lessons
        
↑ Back to top | Tablatures and chords for acoustic guitar and electric guitar, ukulele, drums are parodies/interpretations of the original songs. You may use it for private study, scholarship, research or language learning purposes only