» » »

Marianas Trench - Masterpeice Theatre Tabs

Artists:  A B C D E F G H I J K L M N O P Q R S T U V W X Y Z # 

Masterpeice Theatre Tabs

(ver. 1) Click to play this song!
Marianas Trench
 Rating:
3.6/5 (7 votes)

 Masterpeice Theatre lessons Tabs too difficult? Try these video lessons and learn fast
 
                (Part)

This is my first tab ever, and since no one else had tabbed it I decided that I 
should! So be gentle with me.

If you dont understand my timing scheme, Just play with the song and you'll get it. 

. = Palm mute. 
x = mute string. (but still strike it)
~ = let note ring

VERSE 1 (part right after they sing in "when all i want is you")

e|-----2-----------2-----------2-----------2-----| X 2 
B|---0---0---0---0---0---0---0---0---0---0---0---|
G|-4-------4---3-------3---4-------4---3-------3-|
D|-----------------------------------------------|
A|-----------------------------------------------|
E|-----------------------------------------------|

After you play the above note pattern twice the Verse goes to This

e|-----2-----------2-----------2-----------2------|  <---------|
B|---0---0---0---0---0---0---0---0---0---0---0--0-|            |
G|-4-------4---3-------3---1-------1--------------|            |
D|-------------------------------------4-------4--|            |
A|------------------------------------------------|            | Play X 2
E|------------------------------------------------|            |
(Continued)                                                    | 
e|-----2-----------2-------| (Play this part twice each time)  |
B|---0---0---0---0---0---0-|                                   |
G|-------------------------|                                   |
D|-2-------2---4-------4---|    <------------------------------|            
A|-------------------------|
E|-------------------------|

PRE CHORUS

e|-----2-----------2-----------2-----------2-------|
B|---0---0---0---0---0---0---0---0---0---0---0---0-|
G|-1-------1---1-------1---------------------------|
D|-------------------------4-------4---4-------4---|
A|-------------------------------------------------|
E|-------------------------------------------------|
(Continued)
e|-----2-----------2-----------2--------2-| (lightly strum last note)
B|---0---0---0---0---0---0---0---0---0--0-|
G|--------------------------------------3-|
D|-1-------1---1-------1------------------|
A|-------------------------4-------4------|
E|----------------------------------------|

CHORUS (Play Twice) 

e|-------------------------------------------------------------------------|
B|-------------------------------------------------------------------------|
G|-4-(x16)-3-(x16)---------------------------------------------------------|
D|-4-------4-------2-(x4)-x-(x4)-4-(x4)-x-(x4)-2-(x4)-x-(x4)-4-(x4)-x-(x8)-|
A|-2-------1-------2------x------4------x------2------x------4------x------|
E|-----------------0------x------2------x------0------x------2------x------|

Verse 2 (Same note's as verse one) A Second guitar comes in at one point, i havent 

VERSE 2

e|-----2-----------2-----------2-----------2-----| X 2 
B|---0---0---0---0---0---0---0---0---0---0---0---|
G|-4-------4---3-------3---4-------4---3-------3-|
D|-----------------------------------------------|
A|-----------------------------------------------|
E|-----------------------------------------------|

After you play the above note pattern twice the Verse goes to This

e|-----2-----------2-----------2-----------2------|  <---------|
B|---0---0---0---0---0---0---0---0---0---0---0--0-|            |
G|-4-------4---3-------3---1-------1--------------|            |
D|-------------------------------------4-------4--|            |
A|------------------------------------------------|            | Play X 2
E|------------------------------------------------|            |
(Continued)                                                    | 
e|-----2-----------2-------| (Play this part twice each time)  |
B|---0---0---0---0---0---0-|                                   |
G|-------------------------|                                   |
D|-2-------2---4-------4---|    <------------------------------|            
A|-------------------------|
E|-------------------------|

Pre Chorus 2. as far as i can hear there is only piano and bass in the second pre 
chorus, but if you play the same notes as you did in pre chorus one it will sound the same. 

CHORUS 2 (Play Twice) 

e|-------------------------------------------------------------------------|
B|-------------------------------------------------------------------------|
G|-4-(x16)-3-(x16)---------------------------------------------------------|
D|-4-------4-------2-(x4)-x-(x4)-4-(x4)-x-(x4)-2-(x4)-x-(x4)-4-(x4)-x-(x8)-|
A|-2-------1-------2------x------4------x------2------x------4------x------|
E|-----------------0------x------2------x------0------x------2------x------|

Bridge (play right after chorus, with no stop)

e|-----------------| Part 1 of bridge, right after chorus
B|-----------------|
G|-4--4--4--44-4---| x 4 approximatly, If you play along with the song 
D|-4--4--4--44-4-2-|     you'll get it.
A|-2--2--2--22-2-2-|
E|---------------0-|

Bridge Continued, at the start of second part of the bridge it's just bass. but 
you can play it on guitar if you want.

              x5    (pm'd guitar if you want to play bass part)
  /-------------------------\
e|---------------------------------------|
B|---------------------------------------|
G|----------------------------4--4--4--4-| play last part 7 times and 
D|----------------------------4--4--4--4-| then strum the last one 8 times 
A|-2--2--2--2--2--2--2--2--2--2--2--2--2-| quickly, play with the song 
E|---------------------------------------| and you'll get the timing.
   .  .  .  .  .  .  .  .  .  .  .  .  .

Bridge part three (when the guitar get's faster) (not sure how many times each 
note is played, but play it with the song and you'll figure it out.

e|---------------------------------------------------------------------|
B|---------------------------------------------------------------------|
G|---------------------------------------------------------------------|
D|---------------------------------------------------------------------|
A|---------------------------------------------------------------------|
E|-444444-666666-777777-111111111111-----777777-999999-11-(x6)-12-(x6)-|
  \                    [ 11's not 1's] /\                             /
   \----------------------------------/  \---------------------------/
             Play X 3                         Play X 1

Outro - The outro is played on bass, but if you wish you can play the ending parts 
on clean guitar. This is played right after the fast guitar on the bridge

e|----------------------|
B|----------------------|
G|----------------------|
D|----------------------|
A|----------------------|
E|-7~~~-6~~~-0~~~-2~~0~~| And repeat the 2~~0~~ until the end of the song. 

Enjoy! And remember if you dont understand my timing just play along to the song! 
Feedback and ratings are always welcome! 
            
Submit corrections


        Masterpeice Theatre lessons Hard to play? Try these video lessons and learn fast Masterpeice Theatre lessons
        
↑ Back to top | Tablatures and chords for acoustic guitar and electric guitar, ukulele, drums are parodies/interpretations of the original songs. You may use it for private study, scholarship, research or language learning purposes only