» » »

Marianas Trench - Heres To The Zeros Tabs

Artists:  A B C D E F G H I J K L M N O P Q R S T U V W X Y Z # 

Heres To The Zeros Tabs

(ver. 1) Click to play this song!
Marianas Trench
 Rating:
2.9/5 (28 votes)

 Heres To The Zeros  lessons Tabs too difficult? Try these video lessons and learn fast
 
                Tuning: Standard

[Intro]
e|---------------------------------------------------------------------------------|
B|---------------------------------------------------------------------------------|
G|-11-----11------11------------11---------11--11-----11------11------------11-----|
D|-11-11--11--11--11--9--9--11--11--11--11-11--11-11--11--11--11--9--9--11--11--11-|
A|-9--11--9---11--9---9--9--11--9---11--11-9---9--11--9---11--9---9--9--11--9---11-|
E|----9-------9-------7--7--9-------9----9--------9-------9-------7--7--9-------9--|

[Verse 1]

Hey kids, do you wanna do what I do?
I got sick, got kicked out of high school.
I guess then, I kinda got arrested,
With a car and a chase and a drug test.
e|---------------------------------------------------------------------------------|
B|---------------------------------------------------------------------------------|
G|-11-----11------11------------11---------11--11-----11------11------------11-----|
D|-11-11--11--11--11--9--9--11--11--11--11-11--11-11--11--11--11--9--9--11--11--11-|
A|-9--11--9---11--9---9--9--11--9---11--11-9---9--11--9---11--9---9--9--11--9---11-|
E|----9-------9-------7--7--9-------9----9--------9-------9-------7--7--9-------9--|

These days, they don't wanna be near that.
'Cause if you're selling records they don't wanna hear that.
Clean cut, we do it like Disney.
Well adjusted, trusted, trust me.
e|---------------------------------------------------------------------------------|
B|---------------------------------------------------------------------------------|
G|-11-----11------11------------11---------11--11-----11------11------------11-----|
D|-11-11--11--11--11--9--9--11--11--11--11-11--11-11--11--11--11--9--9--11--11--11-|
A|-9--11--9---11--9---9--9--11--9---11--11-9---9--11--9---11--9---9--9--11--9---11-|
E|----9-------9-------7--7--9-------9----9--------9-------9-------7--7--9-------9--|
Party anthems get them dancing.
Well I'm the king of second chancin'.
e|---------------------------------------------------------------------------------|
B|---------------------------------------------------------------------------------|
G|-11-----11------11------------11---------11--11-----11------11------------11-----|
D|-11-11--11--11--11--9--9--11--11--11--11-11--11-11--11--11--11--9--9--11--11--11-|
A|-9--11--9---11--9---9--9--11--9---11--11-9---9--11--9---11--9---9--9--11--9---11-|
E|----9-------9-------7--7--9-------9----9--------9-------9-------7--7--9-------9--|
Airbrushed, shiny, notoriety.
They disappear into the back to go and get high-ity.
e|-------------------------------------------------------------------|
B|-------------------------------------------------------------------|
G|-11-----11------11------------11---------11--11-----11------11-----|
D|-11-11--11--11--11--9--9--11--11--11--11-11--11-11--11--11--11--9~-|
A|-9--11--9---11--9---9--9--11--9---11--11-9---9--11--9---11--9---9~-|
E|----9-------9-------7--7--9-------9----9--------9-------9-------7~-|

[Chorus]

Hey! Ho!
Where did all the good go?
Baby, this is where you're dead wrong.
Alright!
e|-----------------------------------------------|
B|-----------------------------------------------|
G|-11--11-11----------11---11-11-----------------|
D|-11--11-11-9--11-11-11---11-11-9---11-11-11----|
A|-9---9--9--9--11-11-9----9--9--9---11-11-11----|
E|-----------7--9--9-------------7---9--9--9-----|
Hey! Ho!
Here's to all the zeroes!
And every misfit,
And all my down and outs...
e|---------------------------------------------------------------------------|
B|---------------------------------------------------------------------------|
G|-11--11-11----------11---11-11---------------------------------------------|
D|-11--11-11-9--11-11-11---11-11-9---11-11-11--11-11-------------------------|
A|-9---9--9--9--11-11-9----9--9--9---11-11-11--11-11-------------------------|
E|-----------7--9--9-------------7---9--9--9---9--9--------------------------|
Hey! Ho!
Where did all the good go?
Baby, this is where you're dead wrong.
Alright!
e|-----------------------------------------------|
B|-----------------------------------------------|
G|-11--11-11----------11---11-11-----------------|
D|-11--11-11-9--11-11-11---11-11-9---11-11-11----|
A|-9---9--9--9--11-11-9----9--9--9---11-11-11----|
E|-----------7--9--9-------------7---9--9--9-----|
Hey! Ho!
Here's to all the zeroes!
And every misfit,
And all my down and outs...
e|---------------------------------------------------------------------------|
B|---------------------------------------------------------------------------|
G|-11--11-11----------11---11-11---------------------------------------------|
D|-11--11-11-9--11-11-11---11-11-9---11-11-11--11-11-------------------------|
A|-9---9--9--9--11-11-9----9--9--9---11-11-11--11-11-------------------------|
E|-----------7--9--9-------------7---9--9--9---9--9--------------------------|

e|--------------------------------------|
B|--------------------------------------|
G|-11-----11------11------------11------|
D|-11-11--11--11--11--9--9--11--11--11--|
A|-9--11--9---11--9---9--9--11--9---11--|
E|----9-------9-------7--7--9-------9---|

[Verse 2]
You don't sing, you got a young look so,
It's nothing autotune can't fix though.
MTV don't play videos.
And no guitars are allowed on the radio.
e|---------------------------------------------------------------------------------|
B|---------------------------------------------------------------------------------|
G|-11-----11------11------------11---------11--11-----11------11------------11-----|
D|-11-11--11--11--11--9--9--11--11--11--11-11--11-11--11--11--11--9--9--11--11--11-|
A|-9--11--9---11--9---9--9--11--9---11--11-9---9--11--9---11--9---9--9--11--9---11-|
E|----9-------9-------7--7--9-------9----9--------9-------9-------7--7--9-------9--|
These days, I kinda just pretend so,
I guess I don't mind, it depends though.
Get stuck to every innuendo.
But it doesn't seem to matter in the end so,
e|---------------------------------------------------------------------------------|
B|---------------------------------------------------------------------------------|
G|-11-----11------11------------11---------11--11-----11------11------------11-----|
D|-11-11--11--11--11--9--9--11--11--11--11-11--11-11--11--11--11--9--9--11--11--11-|
A|-9--11--9---11--9---9--9--11--9---11--11-9---9--11--9---11--9---9--9--11--9---11-|
E|----9-------9-------7--7--9-------9----9--------9-------9-------7--7--9-------9--|
They say 'where's the next hit, baby?'.
God, how could I top 'Call Me Maybe'?
e|---------------------------------------------------------------------------------|
B|---------------------------------------------------------------------------------|
G|-11-----11------11------------11---------11--11-----11------11------------11-----|
D|-11-11--11--11--11--9--9--11--11--11--11-11--11-11--11--11--11--9--9--11--11--11-|
A|-9--11--9---11--9---9--9--11--9---11--11-9---9--11--9---11--9---9--9--11--9---11-|
E|----9-------9-------7--7--9-------9----9--------9-------9-------7--7--9-------9--|
I'm delirious, she's bi-curious.
Let's disappear into the back to go and get serious...
e|-------------------------------------------------------------------|
B|-------------------------------------------------------------------|
G|-11-----11------11------------11---------11--11-----11------11-----|
D|-11-11--11--11--11--9--9--11--11--11--11-11--11-11--11--11--11--9~-|
A|-9--11--9---11--9---9--9--11--9---11--11-9---9--11--9---11--9---9~-|
E|----9-------9-------7--7--9-------9----9--------9-------9-------7~-|

[Chorus]

Hey! Ho!
Where did all the good go?
Baby, this is where you're dead wrong.
Alright!
e|-----------------------------------------------|
B|-----------------------------------------------|
G|-11--11-11----------11---11-11-----------------|
D|-11--11-11-9--11-11-11---11-11-9---11-11-11----|
A|-9---9--9--9--11-11-9----9--9--9---11-11-11----|
E|-----------7--9--9-------------7---9--9--9-----|
Hey! Ho!
Here's to all the zeroes!
And every misfit,
And all my down and outs...
e|---------------------------------------------------------------------------|
B|---------------------------------------------------------------------------|
G|-11--11-11----------11---11-11---------------------------------------------|
D|-11--11-11-9--11-11-11---11-11-9---11-11-11--11-11-------------------------|
A|-9---9--9--9--11-11-9----9--9--9---11-11-11--11-11-------------------------|
E|-----------7--9--9-------------7---9--9--9---9--9--------------------------|
Hey! Ho!
Where did all the good go?
Baby, this is where you're dead wrong.
Alright!
e|-----------------------------------------------|
B|-----------------------------------------------|
G|-11--11-11----------11---11-11-----------------|
D|-11--11-11-9--11-11-11---11-11-9---11-11-11----|
A|-9---9--9--9--11-11-9----9--9--9---11-11-11----|
E|-----------7--9--9-------------7---9--9--9-----|
Hey! Ho!
Here's to all the zeroes!
And every misfit,
And all my down and outs...
e|---------------------------------------------------------------------------|
B|---------------------------------------------------------------------------|
G|-11--11-11----------11---11-11---------------------------------------------|
D|-11--11-11-9--11-11-11---11-11-9---11-11-11--11-11-------------------------|
A|-9---9--9--9--11-11-9----9--9--9---11-11-11--11-11-------------------------|
E|-----------7--9--9-------------7---9--9--9---9--9--------------------------|

[Bridge] (**OPTIONAL**)
Hallelujah up for ransom.
Cash value for #anthems.
Sing it now!
e|---------------------|
B|---------------------|
G|---------------------|
D|---------------------| X7
A|-4--x--x--4-4-4------|
E|-2--x--x--2-2-2------|
Hallelujah up for ransom.
Cash value for #anthems. [x3]
Woa-ooh!
Ooooh, yeah yeah yeah! I sing "hallelujah"! Hallelujah! Yeah, yeah!
Hey, ho! Where did all the good go?

[Chorus] (CHANGED KEY)
Hey! Ho!
Where did all the good go?
Baby, this is where you're dead wrong.
Alright!
e|---------------------------------------------------------------------------|
B|---------------------------------------------------------------------------|
G|---------------------------------------------------------------------------|
D|--8~-8-8--6~-6-6-4~-4-4-6~-6-6-6---6---------------------------------------|
A|--6~-6-6--4~-4-4-2~-2-2-4~-4-4-4---4---------------------------------------|
E|---------------------------------------------------------------------------|
Hey! Ho!
Here's to all the zeroes!
And every misfit,
And all my down and outs...
e|---------------------------|
B|---------------------------|
G|---------------------------|
D|--8~-8-8-6~-6-6-4~-4-4-6-6-|
A|--6~-6-6-4~-4-4-2~-2-2-4-4-|
E|---------------------------|

[Outro]
e|----------------------------------------------------------------------------------|
B|----------------------------------------------------------------------------------|
G|-11-----11------11------------11---------11--11-----11------11---------11----11~--|
D|-11-11--11--11--11--9--9--11--11--11--11-11--11-11--11--11--11--9-9-11-11-11-11---|
A|-9--11--9---11--9---9--9--11--9---11--11-9---9--11--9---11--9---9-9-11-9--11-9----|
E|----9-------9-------7--7--9-------9----9--------9-------9-------7-7-9-----9-------|            
Submit corrections


        Heres To The Zeros  lessons Hard to play? Try these video lessons and learn fast Heres To The Zeros  lessons
        
↑ Back to top | Tablatures and chords for acoustic guitar and electric guitar, ukulele, drums are parodies/interpretations of the original songs. You may use it for private study, scholarship, research or language learning purposes only