» » »

Margot And The Nuclear So And Sos - Freak Flight Speed Tabs

Artists:  A B C D E F G H I J K L M N O P Q R S T U V W X Y Z # 

Freak Flight Speed Tabs

(ver. 1) Click to play this song!
Margot And The Nuclear So And Sos
 Rating:
4/5 (4 votes)

 Freak Flight Speed  lessons Tabs too difficult? Try these video lessons and learn fast
 
                Tuning: Standard (EADGBe)

Capo on the 2nd fret. All chords are relative to the capo.

Intro:
e|---------------------------------------------|
B|-----------0-----------------------0---------|
G|-----2-------2-----2---2-----2---------------|
D|-------0---------0-------------0-------------|     x2
A|-2-2-----2-----2-----2-----------------------|
E|-------------------------3-3-----3---3-3-3---|

Verse:
e|-------------------------------------------------|
B|-----------0-----------------------0-------------|
G|-----2-------2-----2---2-----2-------2-----2---2-|
D|-------0---------0-------------0---------0-------|     x3
A|-2-2-----2-----2-----2-----------------2-----2---|
E|-------------------------3-3-----3---------------|

"All bets are off..." / "When I take my time..."
e|------------------------------------|
B|-----------0------------------------|
G|-----2-------2-----2---2-0--0--0--0-|
D|-------0---------0-------0--0--2--0-|
A|-2-2-----2-----2-----2---2--0--2--0-|
E|-------------------------3--2--0--2-|

Chorus:
e|-------------------|
B|-3-3-3-3-----------|
G|-2-2-2-2---0-0-0-0-|
D|-0-0-0-0---0-0-2-0-|     x3
A|-2-2-2-2---2-0-2-0-|
E|-----------3-2-0-2-|

"'Cause I need you now..."
e|------------------|
B|-3-3-3-3--3-3-3-3-|
G|-0-0-0-0--0-0-0-0-|
D|-0-0-0-0--0-0-0-0-|
A|-2-2-2-2--0-0-0-0-|
E|-3-3-3-3--2-2-2-2-|

Lyrics:

[Verse 1]
Wide eyed, still awake,
Let's have some fun
If I'm discovered at your place,
All bets are off

[Chorus]
I know,
Nothing's gonna work right
Strung up,
Dancing on a freak flight
Hold on,
Baby, get your head back down

[Verse 2]
Won't stop metal friend,
While the moon's still red.
Let's get carried away,
Let's lose our heads

[Verse 3]
Are you on my side,
When I lose my mind?
When I get carried away,
When I take my time

[Chorus]
I know,
Nothing's gonna work right
Strung up,
Dancing on a freak flight
Hold on,
Baby, get your head back down

'Cause I need you now (x3)

[Verse 4]
Wide eyed, still awake,
Let's have some fun
If I'm arrested in this state,
All bets are off

[Chorus]
I know,
Nothing's gonna work right
Strung out,
Dancing on a freak flight
Hold on,
Baby get your head back down

'Cause I need you now (x6)            
Submit corrections


        Freak Flight Speed  lessons Hard to play? Try these video lessons and learn fast Freak Flight Speed  lessons
        
↑ Back to top | Tablatures and chords for acoustic guitar and electric guitar, ukulele, drums are parodies/interpretations of the original songs. You may use it for private study, scholarship, research or language learning purposes only