Home » M » Manowar »

Manowar - Kingdom Come Bass

Artists:  A B C D E F G H I J K L M N O P Q R S T U V W X Y Z # 

Kingdom Come Bass

(ver. 1) Click to play this song!
Manowar
 Rating:
4/5 (4 votes)
                ManOwaR - Kingdom Come
 Written & Played by:
 Joey DeMaio - Top 10 Bad-A§§ Bass Players

 Intro:
G----------------------------------------------
D--5-5-5-5-5-5-5--2-2-2-2-2-2-2----------------
A--------------------------------2-2-2-2-2-2-2-
E----------------------------------------------


G---------------------------
D-----------------5-5-5-5-5-
A--3-3-3-3-3-3-3------------
E---------------------------


 Verse & Chorus:
G-----------------------------------------------
D--5-5-5-5-5-5-5--5-5-5-5--5-4-2--2-2-2-2-2-2-2-
A-----------------------------------------------
E-----------------------------------------------


G----------------------------------------------
D----------------------------------5--5--------
A--2-2-2-2-2-2-2--0-2-3-3-3-3-3-3-------0-2--3-
E----------------------------------------------


G--------------
D--5--5--------
A-------0-2--3-
E--------------


 Solo:
G-----------------------------------------------
D--5-5-5-5-5-5-5-5-5-5-5-5-5-4--2-2-2-2-2-2-2-2-
A-----------------------------------------------
E-----------------------------------------------


G-------------------------------7--------------
D-------------------------------5--5-0-2-3-3-2-
A--2-2-2-2-2-2-2--0-2-3-3-3-3-3----------------
E----------------------------------------------


G--------------------------------
D--5-3-3-3-2--3-0-2--3-5-5-5-5-5- 
A--------------------------------
E--------------------------------


Playing Order:

Intro
Verse
Chorus
Verse
Chorus
Verse
Chorus
Solo
Chorus

Originally Tab'd by -Nyte-
            
Submit corrections

↑ Back to top | Tablatures and chords for acoustic guitar and electric guitar, ukulele, drums are parodies/interpretations of the original songs. You may use it for private study, scholarship, research or language learning purposes only