Home » M » Manic Street Preachers »

Manic Street Preachers - Vision Blurred Tabs

Artists:  A B C D E F G H I J K L M N O P Q R S T U V W X Y Z # 

Vision Blurred Tabs

(ver. 1) Click to play this song!
Manic Street Preachers
[Intro]
 
   E5                                         E5
e|------------------------------------------|------------------------------------------|
B|------------------------------------------|------------------------------------------|
G|-------12-------12--11---9-9-6-6-6-6-6-6--|-------12-------12--11---9-9-6-6-6-6-6-6--|
D|-------x--------x---x----x-x-x-x-x-x-x-x--|-------x--------x---x----x-x-x-x-x-x-x-x--|
A|-------10-------10--9----7-7-4-4-7-7-4-4--|-------10-------10--9----7-7-4-4-7-7-4-4--|
E|-0--0-------0-----------------------------|-0--0-------0-----------------------------|
 
   E5                                         E5
e|------------------------------------------|------------------------------------------|
B|------------------------------------------|------------------------------------------|
G|-------12-------12--11---9-9-6-6-6-6-6-6--|-------12-------12--11---9-9-6-6-6-6-6-6--|
D|-------x--------x---x----x-x-x-x-x-x-x-x--|-------x--------x---x----x-x-x-x-x-x-x-x--|
A|-------10-------10--9----7-7-4-4-7-7-4-4--|-------10-------10--9----7-7-4-4-7-7-4-4--|
E|-0--0-------0-----------------------------|-0--0-------0-----------------------------|
 
 
[Verse 1]
 
   E5                                         E5
e|------------------------------------------|------------------------------------------|
B|------------------------------------------|------------------------------------------|
G|-------12-------12--11---9-9-6-6-6-6-6-6--|-------12-------12--11---9-9-6-6-6-6-6-6--|
D|-------x--------x---x----x-x-x-x-x-x-x-x--|-------x--------x---x----x-x-x-x-x-x-x-x--|
A|-------10-------10--9----7-7-4-4-7-7-4-4--|-------10-------10--9----7-7-4-4-7-7-4-4--|
E|-0--0-------0-----------------------------|-0--0-------0-----------------------------|
   Tearing wild through the soaking night 
 
   E5                                         E5
e|------------------------------------------|------------------------------------------|
B|------------------------------------------|------------------------------------------|
G|-------12-------12--11---9-9-6-6-6-6-6-6--|-------12-------12--11---9-9-6-6-6-6-6-6--|
D|-------x--------x---x----x-x-x-x-x-x-x-x--|-------x--------x---x----x-x-x-x-x-x-x-x--|
A|-------10-------10--9----7-7-4-4-7-7-4-4--|-------10-------10--9----7-7-4-4-7-7-4-4--|
E|-0--0-------0-----------------------------|-0--0-------0-----------------------------|
   in my mind every corners blind 
 
   E5                                         E5
e|------------------------------------------|-----------------------------------------------|
B|------------------------------------------|-------8-------8-----7------5---2---5---2------|
G|-------12-------12--11---9-9-6-6-6-6-6-6--|-------10b12---10b12-9b11---7b9-4b6-7b9-4b6----|
D|-------x--------x---x----x-x-x-x-x-x-x-x--|-----------------------------------------------|
A|-------10-------10--9----7-7-4-4-7-7-4-4--|-----------------------------------------------|
E|-0--0-------0-----------------------------|-0--0------------------------------------------|
   lets slip words in shattered verse 
 
   E5                                         E5
e|------------------------------------------|-----------------------------------------------|
B|------------------------------------------|-------8-------8-----7------5---2---5---2------|
G|-------12-------12--11---9-9-6-6-6-6-6-6--|-------10b12---10b12-9b11---7b9-4b6-7b9-4b6----|
D|-------x--------x---x----x-x-x-x-x-x-x-x--|-----------------------------------------------|
A|-------10-------10--9----7-7-4-4-7-7-4-4--|-----------------------------------------------|
E|-0--0-------0-----------------------------|-0--0------------------------------------------|
   as slow motion figures run behind 
 
   B5   A5   G5                               B5   A5   G5
e|------------------------------------------|------------------------------------------|
B|------------------------------------------|------------------------------------------|
G|-16---14---12n\n/n\n/---------------------|-16---14---12n\n/n\n/---------------------|
D|-x----x----x------------------------------|-x----x----x------------------------------|
A|-14---12---10n\n/n\n/---------------------|-14---12---10n\n/n\n/---------------------|
E|------------------------------------------|------------------------------------------|
   a vision blurred                           I am cursed                  I will burn 
 
   E5                                         E5
e|------------------------------------------|------------------------------------------|
B|------------------------------------------|------------------------------------------|
G|-------12-------12--11---9-9-6-6-6-6-6-6--|-------12-------12--11---9-9-6-6-6-6-6-6--|
D|-------x--------x---x----x-x-x-x-x-x-x-x--|-------x--------x---x----x-x-x-x-x-x-x-x--|
A|-------10-------10--9----7-7-4-4-7-7-4-4--|-------10-------10--9----7-7-4-4-7-7-4-4--|
E|-0--0-------0-----------------------------|-0--0-------0-----------------------------|
 
 
[Chorus]
 
   G5                      E5                        B5                      A5
e|-------------------------------------------------|-------------------------------------------------|
B|-------------------------------------------------|-------------------------------------------------|
G|-------------------------------------------------|-------------------------------------------------|
D|-5--5--5--5--5--5--5--5--2--2--2--2--2--2--2--2--|-9--9--9--9--9--9--9--9--7--7--7--7--7--7--7--7--|
A|-5--5--5--5--5--5--5--5--2--2--2--2--2--2--2--2--|-9--9--9--9--9--9--9--9--7--7--7--7--7--7--7--7--|
E|-3--3--3--3--3--3--3--3--0--0--0--0--0--0--0--0--|-7--7--7--7--7--7--7--7--5--5--5--5--5--5--5--5--|
    now I wait                            standing   cornered         
 
   G5                      E5                        B5                      A5
e|-------------------------------------------------|-------------------------------------------------|
B|-------------------------------------------------|-------------------------------------------------|
G|-------------------------------------------------|-------------------------------------------------|
D|-5--5--5--5--5--5--5--5--2--2--2--2--2--2--2--2--|-9--9--9--9--9--9--9--9--7--7--7--7--7--7--7--7--|
A|-5--5--5--5--5--5--5--5--2--2--2--2--2--2--2--2--|-9--9--9--9--9--9--9--9--7--7--7--7--7--7--7--7--|
E|-3--3--3--3--3--3--3--3--0--0--0--0--0--0--0--0--|-7--7--7--7--7--7--7--7--5--5--5--5--5--5--5--5--|
   Ive returned                               I      concur                  my vision has blurred 
 
 
Again, I think there are a few guitar tracks on the recording so you can play the chords in any position
you think sounds best. I like to play the power chords above or the octaves with whammy arm dips, like this:
 
   G5                      E5                        B5                   A5
e|-------------------------------------------------|-------------------------------------------------|
B|-------------------------------------------------|-------------------------------------------------|
G|-12n\n/n\n/--------------9n\n/n\n/---------------|-16n\n/n\n/-----------14n\n/n\n/-----------------|
D|-x-----------------------x-----------------------|-x--------------------x--------------------------|
A|-10n\n/n\n/--------------7n\n/n\n/---------------|-14n\n/n\n/-----------12n\n/n\n/-----------------|
E|-------------------------------------------------|-------------------------------------------------|
 
 
[Verse 2]
 
   E5                                         E5
e|------------------------------------------|------------------------------------------|
B|------------------------------------------|------------------------------------------|
G|-------12-------12--11---9-9-6-6-6-6-6-6--|-------12-------12--11---9-9-6-6-6-6-6-6--|
D|-------x--------x---x----x-x-x-x-x-x-x-x--|-------x--------x---x----x-x-x-x-x-x-x-x--|
A|-------10-------10--9----7-7-4-4-7-7-4-4--|-------10-------10--9----7-7-4-4-7-7-4-4--|
E|-0--0-------0-----------------------------|-0--0-------0-----------------------------|
 
   E5                                         E5
e|------------------------------------------|-----------------------------------------------|
B|------------------------------------------|-------8-------8-----7------5---2---5---2------|
G|-------12-------12--11---9-9-6-6-6-6-6-6--|-------10b12---10b12-9b11---7b9-4b6-7b9-4b6----|
D|-------x--------x---x----x-x-x-x-x-x-x-x--|-----------------------------------------------|
A|-------10-------10--9----7-7-4-4-7-7-4-4--|-----------------------------------------------|
E|-0--0-------0-----------------------------|-0--0------------------------------------------|
   Stretch me out on ? fire
 
   E5                                         E5
e|------------------------------------------|-----------------------------------------------|
B|------------------------------------------|-------8-------8-----7------5---2---5---2------|
G|-------12-------12--11---9-9-6-6-6-6-6-6--|-------10b12---10b12-9b11---7b9-4b6-7b9-4b6----|
D|-------x--------x---x----x-x-x-x-x-x-x-x--|-----------------------------------------------|
A|-------10-------10--9----7-7-4-4-7-7-4-4--|-----------------------------------------------|
E|-0--0-------0-----------------------------|-0--0------------------------------------------|
   Stand and watch let my body burn 
 
   B5   A5   G5                               B5   A5   G5
e|------------------------------------------|------------------------------------------|
B|------------------------------------------|------------------------------------------|
G|-16---14---12n\n/n\n/---------------------|-16---14---12n\n/n\n/---------------------|
D|-x----x----x------------------------------|-x----x----x------------------------------|
A|-14---12---10n\n/n\n/---------------------|-14---12---10n\n/n\n/---------------------|
E|------------------------------------------|------------------------------------------|
   Leave me here                          a   vision blurred              watch me burn 
 
   E5                                         E5
e|------------------------------------------|------------------------------------------|
B|------------------------------------------|------------------------------------------|
G|-------12-------12--11---9-9-6-6-6-6-6-6--|-------12-------12--11---9-9-6-6-6-6-6-6--|
D|-------x--------x---x----x-x-x-x-x-x-x-x--|-------x--------x---x----x-x-x-x-x-x-x-x--|
A|-------10-------10--9----7-7-4-4-7-7-4-4--|-------10-------10--9----7-7-4-4-7-7-4-4--|
E|-0--0-------0-----------------------------|-0--0-------0-----------------------------|
 
 
[Chorus]
 
   G5                      E5                        B5                      A5
e|-------------------------------------------------|-------------------------------------------------|
B|-------------------------------------------------|-------------------------------------------------|
G|-------------------------------------------------|-------------------------------------------------|
D|-5--5--5--5--5--5--5--5--2--2--2--2--2--2--2--2--|-9--9--9--9--9--9--9--9--7--7--7--7--7--7--7--7--|
A|-5--5--5--5--5--5--5--5--2--2--2--2--2--2--2--2--|-9--9--9--9--9--9--9--9--7--7--7--7--7--7--7--7--|
E|-3--3--3--3--3--3--3--3--0--0--0--0--0--0--0--0--|-7--7--7--7--7--7--7--7--5--5--5--5--5--5--5--5--|
   now I pray                               for a    signal 
 
   G5                      E5                        B5                      A5
e|-------------------------------------------------|-------------------------------------------------|
B|-------------------------------------------------|-------------------------------------------------|
G|-------------------------------------------------|-------------------------------------------------|
D|-5--5--5--5--5--5--5--5--2--2--2--2--2--2--2--2--|-9--9--9--9--9--9--9--9--7--7--7--7--7--7--7--7--|
A|-5--5--5--5--5--5--5--5--2--2--2--2--2--2--2--2--|-9--9--9--9--9--9--9--9--7--7--7--7--7--7--7--7--|
E|-3--3--3--3--3--3--3--3--0--0--0--0--0--0--0--0--|-7--7--7--7--7--7--7--7--5--5--5--5--5--5--5--5--|
   Ive returned                                  I   surrender            my vision has blurred 
 
 
[Break/middle]
 
   E5                                            E5
e|---------------------------------------------|---------------------------------------------|
B|---------------------------------------------|---------------------------------------------|
G|---------------------------------------------|---------------------------------------------|
D|-2--2---2-2-2--2---2-2-2--2---2-2-2--2---2-2-|-2--2---2-2-2--2---2-2-2--2---2-2-2--2---2-2-|
A|-2--2---2-2-2--2---2-2-2--2---2-2-2--2---2-2-|-2--2---2-2-2--2---2-2-2--2---2-2-2--2---2-2-|
E|-0--0---0-0-0--0---0-0-0--0---0-0-0--0---0-0-|-0--0---0-0-0--0---0-0-0--0---0-0-0--0---0-0-|
 
   E5                                            E5
e|---------------------------------------------|---------------------------------------------|
B|---------------------------------------------|---------------------------------------------|
G|---------------------------------------------|---------------------------------------------|
D|-2--2---2-2-2--2---2-2-2--2---2-2-2--2---2-2-|-2--2---2-2-2--2---2-2-2--2---2-2-2--2---2-2-|
A|-2--2---2-2-2--2---2-2-2--2---2-2-2--2---2-2-|-2--2---2-2-2--2---2-2-2--2---2-2-2--2---2-2-|
E|-0--0---0-0-0--0---0-0-0--0---0-0-0--0---0-0-|-0--0---0-0-0--0---0-0-0--0---0-0-0--0---0-0-|
   Through the tendrils     through the trees    see the furnace change 
 
   E5                                            E5
e|---------------------------------------------|-----------------------------|
B|---------------------------------------------|-----------------------------|
G|---------------------------------------------|-----------------------------|
D|-2--2---2-2-2--2---2-2-2--2---2-2-2--2---2-2-|-2--2---2-2-2--2---2-2-2--2--|
A|-2--2---2-2-2--2---2-2-2--2---2-2-2--2---2-2-|-2--2---2-2-2--2---2-2-2--2--|
E|-0--0---0-0-0--0---0-0-0--0---0-0-0--0---0-0-|-0--0---0-0-0--0---0-0-0--0--|
   we have turned in to wicked spears             faces rearrange 
 
   E5
e|-------------------------------------------------------------------------------------------------------|
B|-------------------------------------------------------------------------------------------------------|
G|-9---9---4---4---12----12----7---7---6---6---6---6---5p4-----5p4-----5p4-----5p4-----5p4-----5p4-------|
D|---9---9---4---4----12----12---7---7---6---6---6---6-----5p4-----5p4-----5p4-----5p4-----5p4-----5p4---|
A|-------------------------------------------------------------------------------------------------------|
E|-------------------------------------------------------------------------------------------------------|
 
 
[Chorus]
 
   G5                      E5                        B5                   A5
e|-------------------------------------------------|-------------------------------------------------|
B|-------------------------------------------------|-------------------------------------------------|
G|-------------------------------------------------|-------------------------------------------------|
D|-5--5--5--5--5--5--5--5--2--2--2--2--2--2--2--2--|-9--9--9--9--9--9--9--9--7--7--7--7--7--7--7--7--|
A|-5--5--5--5--5--5--5--5--2--2--2--2--2--2--2--2--|-9--9--9--9--9--9--9--9--7--7--7--7--7--7--7--7--|
E|-3--3--3--3--3--3--3--3--0--0--0--0--0--0--0--0--|-7--7--7--7--7--7--7--7--5--5--5--5--5--5--5--5--|
   Now we wait                                       paralysed 
 
   G5                      E5                        B5                   A5
e|-------------------------------------------------|-------------------------------------------------|
B|-------------------------------------------------|-------------------------------------------------|
G|-------------------------------------------------|-------------------------------------------------|
D|-5--5--5--5--5--5--5--5--2--2--2--2--2--2--2--2--|-9--9--9--9--9--9--9--9--7--7--7--7--7--7--7--7--|
A|-5--5--5--5--5--5--5--5--2--2--2--2--2--2--2--2--|-9--9--9--9--9--9--9--9--7--7--7--7--7--7--7--7--|
E|-3--3--3--3--3--3--3--3--0--0--0--0--0--0--0--0--|-7--7--7--7--7--7--7--7--5--5--5--5--5--5--5--5--|
   lying blind                                 in    surrender          my vision has blurred 
 
 
[Outro]
 
   E5                                         E5
e|------------------------------------------|-----------------------------------------------|
B|------------------------------------------|-------8-------8-----7------5---2---5---2------|
G|-------12-------12--11---9-9-6-6-6-6-6-6--|-------10b12---10b12-9b11---7b9-4b6-7b9-4b6----|
D|-------x--------x---x----x-x-x-x-x-x-x-x--|-----------------------------------------------|
A|-------10-------10--9----7-7-4-4-7-7-4-4--|-----------------------------------------------|
E|-0--0-------0-----------------------------|-0--0------------------------------------------|
 
   E5                                         E5
e|------------------------------------------|-----------------------------------------------|
B|------------------------------------------|-------8-------8-----7------5---2---5---2------|
G|-------12-------12--11---9-9-6-6-6-6-6-6--|-------10b12---10b12-9b11---7b9-4b6-7b9-4b6----|
D|-------x--------x---x----x-x-x-x-x-x-x-x--|-----------------------------------------------|
A|-------10-------10--9----7-7-4-4-7-7-4-4--|-----------------------------------------------|
E|-0--0-------0-----------------------------|-0--0------------------------------------------|
 
   E5
e|------------------------------------------|
B|------------------------------------------|
G|------------------------------------------|
D|-2----------------------------------------|
A|-2----------------------------------------|
E|-0----------------------------------------|
            
Submit corrections

↑ Back to top | Tablatures and chords for acoustic guitar and electric guitar, ukulele, drums are parodies/interpretations of the original songs. You may use it for private study, scholarship, research or language learning purposes only