» » »

Maldita - Cabeza De Vaca Tabs

Artists:  A B C D E F G H I J K L M N O P Q R S T U V W X Y Z # 

Cabeza De Vaca Tabs

(ver. 1) Click to play this song!
Maldita
 Rating:
4.3/5 (26 votes)

 Cabeza De Vaca lessons Tabs too difficult? Try these video lessons and learn fast
 
                [Intro]
e|--------|
B|--------|
G|--------|
D|-0------|
A|-0------|
D|-0------|

         |T.P.| |T.P.| |T.P.| |T.P.|
e|----------------------------------|
B|----------------------------------|
G|----------------------------------|
D|----------------------------------|
A|--0--0-------0------0------0------|
D|--0--0--0----0-0----0-0----0-0----|

                  |T.P        |                 |T.P        |
e|-----------------------------|------------------------------|
B|-----------------------------|------------------------------|
G|-----------------------------|------------------------------|
D|-----------------------------|------------------------------|
A|-3-3-3-4-4-4-0---------------|------------------------------|
D|---------------0-0---0---0---|-6-6-6-7-7-7-4--0-0---0---0---|

                  |T.P        |
e|-----------------------------|------------------------------|
B|-----------------------------|------------------------------|
G|-----------------------------|------------------------------|
D|-----------------------------|------------------------------|
A|-3-3-3-4-4-4-0---------------|----------------0--0--0--0--0-|
D|---------------0-0---0---0---|-6-6-6-7-7-7-4--0--0--0--0--0-|

[Bridge]
                  |T.P        |                 |T.P        |
e|-----------------------------|------------------------------|
B|-----------------------------|------------------------------|
G|-----------------------------|------------------------------|
D|-----------------------------|------------------------------|
A|-3-3-3-4-4-4-0---------------|------------------------------|
D|---------------0-0---0---0---|-6-6-6-7-7-7-4--0-0---0---0---|

                  |T.P        |
e|-----------------------------|-----------------------|
B|-----------------------------|-----------------------|
G|-----------------------------|-----------------------|
D|-----------------------------|-----------------------|
A|-3-3-3-4-4-4-0---------------|-----------------------|
D|---------------0-0---0---0---|-6-6-6-7-7-7-4--7/12\0-|

E eu tô me sentindo tão bem...
Parece até que eu nasci de novo
O inferno era liso e frio como o mármore

[Verse 1]
  |T.P|       |T.P    |         |T.P|       |T.P    |
e|-------------------------------------------------------------|
B|-------------------------------------------------------------|
G|-------------------------------------------------------------| [4x]
D|-------3/4-----------3--3-3-2--------3/4-----------4/5-------|
A|-------1/2-----------1--1-1-0--------1/2-----------2/3-------|
D|-0---0-----0-0---0-------------0---0-----0-0---0-------0-0-0-|

Tinha gosto de urina,
Mas não podia perder e nem deixar passar 
O meu desejo de te conhecer
Me diga se você não faria
Afinal das contas, que seria dessa vida 
Sem um pouco de prazer?

[Pre Verse]
     |T.P |      |T.P | |T.P |
e|----------------x----1-x----1-|
B|----------------x----1-x----1-|
G|------------------------------| [4x]
D|------------------------------|
A|-0--------0--0----------------|
D|-0--0-----0--0----------------|

[Verse 2]
  |T.P|       |T.P    |         |T.P|       |T.P    |
e|-------------------------------------------------------------|
B|-------------------------------------------------------------|
G|-------------------------------------------------------------| [4x]
D|-------3/4-----------3--3-3-2--------3/4-----------4/5-------|
A|-------1/2-----------1--1-1-0--------1/2-----------2/3-------|
D|-0---0-----0-0---0-------------0---0-----0-0---0-------0-0-0-|

Eu errei (hahahaha)
Sei que eu errei nas escolhas, 
Cometi uns excessos em lugares não apropriados
Caralho circuncidado, 
Responsável como um anjo pornográfico,
Minha auréola de arame farpado.

[Pre Chorus]
         |T.P.| |T.P.| |T.P.| |T.P.|
e|----------------------------------|
B|----------------------------------|
G|----------------------------------|
D|----------------------------------|
A|--0--0-------0------0------0------|
D|--0--0--0----0-0----0-0----0-0----|

[Chorus]
         |T.P.|                     |T.P.|
e|-----------------------------|---------------|
B|-----------------------------|---------------|
G|-----------------------------|---------------|
D|------------------5--4--2----|---------------|
A|-0----------------3--2--0--5-|---------------|
D|-0--0-0-0---0-0-0----------3-|-0-0-0---0-0-0-|

                             |T.P.|
e|----------------------|--------------------------|
B|----------------------|--------------------------|
G|----------------------|--------------------------|
D|5--4--2---4----5----7-|---------------10---10-10-|
A|3--2--0---2----3----5-|---------------8----8--8--|
D|----------------------|-0-0-0---0-0-0----0-------|

São meus aliados
Yo vejo la puta que te encuesta na cerca
Porque tengo una cabeza de vaca
E é inevitável
Me gusta o que vejo pero soy imperfecto
Porque tengo una cabeza de vaca

[Bridge]
                  |T.P        |                 |T.P        |
e|-----------------------------|------------------------------|
B|-----------------------------|------------------------------|
G|-----------------------------|------------------------------|
D|-----------------------------|------------------------------|
A|-3-3-3-4-4-4-0---------------|------------------------------|
D|---------------0-0---0---0---|-6-6-6-7-7-7-4--0-0---0---0---|

                  |T.P        |
e|-----------------------------|-----------------------|
B|-----------------------------|-----------------------|
G|-----------------------------|-----------------------|
D|-----------------------------|-----------------------|
A|-3-3-3-4-4-4-0---------------|-----------------------|
D|---------------0-0---0---0---|-6-6-6-7-7-7-4--7/12\0-|

O desamparo está fazendo você se mover
O desamparo está fazendo você se mover
O desamparo está fazendo você...Nero,
Pegue o cordeiro agora, que mataram pra você.

[Verse 3]
  |T.P|       |T.P    |         |T.P|       |T.P    |
e|-------------------------------------------------------------|
B|-------------------------------------------------------------|
G|-------------------------------------------------------------| [4x]
D|-------3/4-----------3--3-3-2--------3/4-----------4/5-------|
A|-------1/2-----------1--1-1-0--------1/2-----------2/3-------|
D|-0---0-----0-0---0-------------0---0-----0-0---0-------0-0-0-|

Imundo banheiro público
Com a cabeça raspada e um espelho quebrado,
Eu vejo um rosto translúcido
Um crustáceo, neurose de ácido
Piscina negra, eu me jogo até o fundo
Com cuidado para não ser afogado.

[Pre Chorus]
     |T.P |      |T.P | |T.P |
e|----------------x----1-x----1-|
B|----------------x----1-x----1-|
G|------------------------------| [4x]
D|------------------------------|
A|-0--------0--0----------------|
D|-0--0-----0--0----------------|

         |T.P.| |T.P.| |T.P.| |T.P.|
e|----------------------------------|
B|----------------------------------|
G|----------------------------------|
D|----------------------------------|
A|--0--0-------0------0------0------|
D|--0--0--0----0-0----0-0----0-0----|

[Chorus]
         |T.P.|                     |T.P.|
e|-----------------------------|---------------|
B|-----------------------------|---------------|
G|-----------------------------|---------------|
D|------------------5--4--2----|---------------|
A|-0----------------3--2--0--5-|---------------|
D|-0--0-0-0---0-0-0----------3-|-0-0-0---0-0-0-|

                             |T.P.|
e|----------------------|--------------------------|
B|----------------------|--------------------------|
G|----------------------|--------------------------|
D|5--4--2---4----5----7-|---------------10---10-10-|
A|3--2--0---2----3----5-|---------------8----8--8--|
D|----------------------|-0-0-0---0-0-0----0-------|

São meus aliados
Yo voy al trabajo fumando marijuana
Por que tengo una cabeza de vaca
E é inevitável
Me gusta mucho, mucho, mucho más
Pero tengo una cabeza de vaca

[Bridge]
                  |T.P        |                 |T.P        |
e|-----------------------------|------------------------------|
B|-----------------------------|------------------------------|
G|-----------------------------|------------------------------|
D|-----------------------------|------------------------------|
A|-3-3-3-4-4-4-0---------------|------------------------------|
D|---------------0-0---0---0---|-6-6-6-7-7-7-4--0-0---0---0---|

                  |T.P        |
e|-----------------------------|------------------------------|
B|-----------------------------|------------------------------|
G|-----------------------------|------------------------------|
D|-----------------------------|------------------------------|
A|-3-3-3-4-4-4-0---------------|----------------0--0--0--0--0-|
D|---------------0-0---0---0---|-6-6-6-7-7-7-4--0--0--0--0--0-|

Por sete dias, sete noites, porre de vinho, pesadelo
Olho vermelho, banheiro público, anjos caídos, erva lúgubre.

[Final]
         |T.P.| |T.P.| |T.P.| |T.P.|
e|----------------------------------|
B|----------------------------------|
G|----------------------------------|
D|----------------------------------|
A|--0--0-------0------0------0------|
D|--0--0--0----0-0----0-0----0-0----|


            
Submit corrections


        Cabeza De Vaca lessons Hard to play? Try these video lessons and learn fast Cabeza De Vaca lessons
        
↑ Back to top | Tablatures and chords for acoustic guitar and electric guitar, ukulele, drums are parodies/interpretations of the original songs. You may use it for private study, scholarship, research or language learning purposes only