» » »

Makeout Videotape - Because Im A Boy Tabs

Artists:  A B C D E F G H I J K L M N O P Q R S T U V W X Y Z # 

Because Im A Boy Tabs

(ver. 1) Click to play this song!
Makeout Videotape
 Rating:
4/5 (4 votes)

 Because Im A Boy  lessons Tabs too difficult? Try these video lessons and learn fast
 
                Capo 2th fret, tuning open D (DADF#AD)

INTRO                               VERSE
--------------------------------|--------------------------------|--------------------------------|
0-0-0-0-0-0-0-0-0-0-0-0-0-0-0-0-|0-0-0-0-0-0-0-0-0-0-0-0-0-0-2-4-|0-0-0-0-0-0-0-0-0-0-0-0-0-0-0-0-|
0-0-0-0-0-0-0-0-0-0-0-0-0-0-0-0-|0-0-0-0-0-0-0-0-0-0-0-0-0-2-0-0-|9-9-9-9-7-7-7-7-0-0-0-0-0-0-0-0-|
3-3-3-3-3-3-3-3-3-3-3-3-3-3-3-3-|3-3-3-3-3-3-3-3-3-3-3-0-0-0-0-0-|0-0-0-0-0-0-0-0-11-11-11-11-11--|
2-2-2-2-2-2-2-2-2-2-2-2-2-2-2-2-|2-2-2-2-2-2-2-2-2-2-2-0-0-0-0-0-|7-7-7-7-5-5-5-5-10-10-10-10-10--|
1-1-1-1-1-1-1-1-1-1-1-1-1-1-1-1-|1-1-1-1-1-1-1-1-1-1-1-0-0-0-0-0-|0-0-0-0-0-0-0-0-9-9-9-9-9-9-9-9-|
0-0-0-0-0-0-0-0-0-0-0-0-0-0-0-0-|0-0-0-0-0-0-0-0-0-0-0-0-0-0-0-0-|0-0-0-0-0-0-0-0-0-0-0-0-0-0-0-0-|
--------------------------------|--------------------------------|--------------------------------|
                                She'd be fine..    With a heart like mine                
                                             Could she be       With a boy like me?     
                      and
BRIDGE
--------------------------------|--------------------------------|--------------------------------|
9-9-9-9-0-0-0-0-0-0-0-0-0-0-0-0-|9-9-9-9-9-11-0-0-0-0-0-0-0-0-0-0|0-0-0-0-0-0-0-0-0-0-0-0-0-0-0-0-|
9-9-9-9-7-7-7-7-7-7-7-7-9-9-9-9-|9-9-9-9-0-0--9---7-7-7-7-0-0-0-0|0-0-0-0-0-0-0-0-0-0-0-0-0-0-0-0-|
0-0-0-0-5-5-5-5-5-5-5-5-7-7-7-7-|0-0-0-0-0-0--0-0-5-5-5-5-11-11--|3-3-3-3-3-3-3-3-3-3-3-3-3-3-3-3-|
8-8-8-8-5-5-5-5-5-5-5-5-7-7-7-7-|8-8-8-8-0-0--0-0-5-5-5-5-10-10--|2-2-2-2-2-2-2-2-2-2-2-2-2-2-2-2-|
0-0-0-0-5-5-5-5-5-5-5-5-7-7-7-7-|0-0-0-0-0-0--0-0-5-5-5-5-9-9-9-9|1-1-1-1-1-1-1-1-1-1-1-1-1-1-1-1-|
0-0-0-0-5-5-5-5-5-5-5-5-7-7-7-7-|0-0-0-0-0-0--0-0-5-5-5-5-0-0-0-0|0-0-0-0-0-0-0-0-0-0-0-0-0-0-0-0-|
--------------------------------|--------------------------------|--------------------------------|
I'll be okay..                   Living this way                 Cause I'm a boy

VERSE
When she's near... Things become so clear
I need she, oh and she need me
BRIDGE
Please i need time.. I know I'll be fine, cause I'm a boy, cause i'm a boy (Repeat the 
cause i'm a bo part in the tab) cause i'm a boy..

END
            
Submit corrections


        Because Im A Boy  lessons Hard to play? Try these video lessons and learn fast Because Im A Boy  lessons
        
↑ Back to top | Tablatures and chords for acoustic guitar and electric guitar, ukulele, drums are parodies/interpretations of the original songs. You may use it for private study, scholarship, research or language learning purposes only