» » »

Machine Head - Days Turn Blue To Gray Bass

Artists:  A B C D E F G H I J K L M N O P Q R S T U V W X Y Z # 

Days Turn Blue To Gray Bass

(ver. 1) Click to play this song!
Machine Head
 Rating:
4/5 (4 votes)


 Days Turn Blue To Gray lessons Tabs too difficult? Try these video lessons and learn fast
 
                Days Turn Blue to gray
Machine Head
Through the Ashes of Empires

This tab is not 100% corrcet because to get it 100% you have to de-tune and i dont lyk
de-tuning but it works this way because its the same thing just a octav higher in some places.
enjoy!!!

STANDERED TUNING EADG

b = bend

Intro riff: x6
G||----------------------|----------------------|----------------------|
D||-9-11-9-11-9-12-9-14b-|-9-11-9-11-9-12-9-14b-|-9-11-9-11-9-12-9-14b-|
A||----------------------|----------------------|----------------------|
E||----------------------|----------------------|----------------------|

G||--------------------------|
D||-9-11-9-11-9-1717-1616-14-|
A||--------------------------|
E||--------------------------|

Intro riff 2: x1
G||------------------|------------------|------------------|
D||------------------|------------------|------------------|
A||-2-4-2-4-2-5-2-7b-|-2-4-2-4-2-5-2-7b-|-2-4-2-4-2-5-2-7b-|
E||------------------|------------------|------------------|

G||----------------------|
D||----------------------|
A||--2-4-2-4-2-1010-99-7-|
E||----------------------|

G||------------------|------------------|------------------|
D||------------------|------------------|------------------|
A||-2-4-2-4-2-5-2-7b-|-2-4-2-4-2-5-2-7b-|-2-4-2-4-2-5-2-7b-|
E||------------------|------------------|------------------|

G||-------------|
D||-------------|
A||-555-444-222-|
E||-------------|

G||------------------|------------------|------------------|
D||------------------|------------------|------------------|
A||-2-4-2-4-2-5-2-7b-|-2-4-2-4-2-5-2-7b-|-2-4-2-4-2-5-2-7b-|
E||------------------|------------------|------------------|

              ohhhhhhhhhh
G||---------------------|
D||---------------------|
A||-2-4-2-4-2-1010-99-7-|
E||---------------------|

verse riff: x2
   Tho hath fatered
G||---------------------------------------------|
D||-6-6-6-9-9-9-2-2-2-4-4-6-6-6-----2-2-2-1-1-1-|
A||-----------------------------2-2-------------|
E||---------------------------------------------|

pre chorus: x4
   self-destruction made
G||-----------|
D||-----------|
A||-2-2-3-3-5-|
E||-----------|

chorus riff x2
    Gray.....                                                days turn blue to gray
G||------------------|------------------|------------------|---------------------|
D||------------------|------------------|------------------|---------------------|
A||-2-4-2-4-2-5-2-7b-|-2-4-2-4-2-5-2-7b-|-2-4-2-4-2-5-2-7b-|-2-4-2-4-2-1010-99-7-|
E||------------------|------------------|------------------|---------------------|

verse riff:
   seventeen when family began
G||---------------------------------------------|
D||-6-6-6-9-9-9-2-2-2-4-4-6-6-6-----2-2-2-1-1-1-|
A||-----------------------------2-2-------------|
E||---------------------------------------------|

pre chorus:
   self-destruction made
G||-----------|
D||-----------|
A||-2-2-3-3-5-|
E||-----------|

chorus riff x2
    Gray.....                                                days turn blue to gray
G||------------------|------------------|------------------|---------------------|
D||------------------|------------------|------------------|---------------------|
A||-2-4-2-4-2-5-2-7b-|-2-4-2-4-2-5-2-7b-|-2-4-2-4-2-5-2-7b-|-2-4-2-4-2-1010-99-7-|
E||------------------|------------------|------------------|---------------------|

fill1:
   lest i tast its sweet grapes
G||-------------------------|
D||----------------55-44-22-|
A||-5-5-55------------------|
E||--------77-9-77----------|

    (not exact coorcet number of 5s)
G||-------------------------|
D||-------------------------|
A||-55555555555555555555555-|
E||-------------------------|

interlude: x4#
   (vocals enter 3rd time round)
    Please wont you love me?
G||----------|
D||-11-6-7-4-|
A||----------|
E||----------|

interlude2: x2
Did i hurt you?
G||-------------------------------------------------------------|
D||-------------------------------------------------------------|
A||-44444444444444----------------22222222222222----------------|
E||----------------44444444444444----------------22222222222222-|

Fill2: x4
    Father
G||-------------------|
D||-------------------|
A||-4-2-7-5-4-2-7-5-2-|
E||-------------------|

2nd interlude:
                       x8
G||-------------------|
D||-9-10-9-10-9-14-13-|
A||-------------------|
E||-------------------|

    The strings of my heart   x8
G||---------------|
D||---------------|
A||-2-4-2-4-2-7-6-|
E||---------------|

    Father             x4
G||-------------------|
D||-------------------|
A||-4-2-7-6-4-2-7-6-2-|
E||-------------------|

outro:

    Your self-destruction   x8
G||---------------|
D||---------------|
A||-2-4-2-4-2-7-6-|
E||---------------|
          x4
G||------|
D||------|
A||-2-22-|
E||------|

Lyrics:
Thou have fathered
Son and daughter
Doth begat, yet raised not bother
Paralyzed your children's lives
Wither vines of family ties

Self-destruction
Make him function
Crayons and clay
Days turn blue to gray
Days turn blue to gray

Seventeen when
Family begin
Drinking, fighting, heroin
Unquenchable addictions call
Responsible to none above all

Self-destruction
Make him function
Crayons and clay
Days turn blue to gray
Days turn blue to gray

Lest I taste
Its sweet grapes
Glass to tongue
Across it tips
Cross my lips
Swallow it down

Please
Won't you love me?
Please help me see
What did I do?
Did I hurt you?
And now that you're gone
Emptiness lives on
The guilt is all I feel
No closure

Father
Motherf**ker
No closure

The strings of my heart
You pulled on endlessly
This twine is severed
In tragedy

Father
Mother Destroyer
Destroy her

Your self-destruction
What made you feel alive
Your self-destruction
Of your children's
Lives
            
Submit corrections



        Days Turn Blue To Gray lessons Hard to play? Try these video lessons and learn fast Days Turn Blue To Gray lessons
        
↑ Back to top | Tablatures and chords for acoustic guitar and electric guitar, ukulele, drums are parodies/interpretations of the original songs. You may use it for private study, scholarship, research or language learning purposes only