» » »

Maaike Ouboter - Zandbak Acoustic Tabs

Artists:  A B C D E F G H I J K L M N O P Q R S T U V W X Y Z # 

Zandbak Acoustic Tabs

(ver. 1) Click to play this song!
Maaike Ouboter
 Rating:
4.3/5 (21 vote)

 Zandbak Acoustic lessons Tabs too difficult? Try these video lessons and learn fast
 
                [Intro]

e|-------------------------------------------------|
B|------3-----3----------3-----3---------3-----3---|
G|----0-----0----------0-----0---------0-----0-----|
D|--4-----4-----4----4-----4----4----4-----4-----4-|
A|5-----5----------5-----5---------5-----5---------|
E|-------------------------------------------------|



[Verse 1]

e|-------------------------------------------------------------------|
B|------3-----3----------3-----3---------1-----1----------1-----1----|
G|----0-----0----------0-----0---------0-----0----------0-----0------|
D|--4-----4-----4----4-----4----4----2-----2-----2----2-----2-----2--| X3
A|5-----5----------5-----5---------3-----3----------3-----3----------|
E|-------------------------------------------------------------------|


[Pre-Chorus]

e|-------------------------------------------------------------------|
B|------3-----3----------1-----1---------0-----0----------1-----1----|
G|----0-----0----------0-----0---------0-----0----------0-----0------|
D|--2-----2-----2----1-----1----1----2-----2-----2----2-----2-----2--| 
A|3-----3----------3-----1--------------------------3-----3----------|
E|---------------------------------0-----0---------------------------|

e|---------------------------------|
B|------1-----1----------3-----3---|
G|----0-----0----------0-----0-----|
D|--2-----2-----2----4-----4----4--| 
A|3-----3----------5-----5---------|
E|---------------------------------|


[Chorus]

e|-------------------------------------------------------------------|
B|------0-----0----------0-----0---------0-----0----------0-----0----|
G|----5-----5----------5-----5---------2-----2----------2-----2------| 
D|--0-----0-----0----0-----0----0----0-----0-----0----0-----0-----0--| X2
A|-------------------------------------------------------------------|
E|5-----5----------5-----5---------3-----3----------3-----3----------| 

e|-----------------------------------------------------------------------------------|
B|------3-----3----------3-----3---------3-----3----------3-----3----------3-----3---|
G|----0-----0----------0-----0---------0-----0----------0-----0----------0-----0-----|
D|--2-----2-----2----4-----4----4----2-----2-----2----4-----4-----4----2-----2-----2-|
A|3-----3----------5-----5---------3-----3----------5-----5----------3-----3---------|
E|-----------------------------------------------------------------------------------|


[Verse 2]

e|-------------------------------------------------------------------|
B|------3-----3----------3-----3---------1-----1----------1-----1----|
G|----0-----0----------0-----0---------0-----0----------0-----0------|
D|--4-----4-----4----4-----4----4----2-----2-----2----2-----2-----2--| X3
A|5-----5----------5-----5---------3-----3----------3-----3----------|
E|-------------------------------------------------------------------|



[Pre-Chorus]

e|-------------------------------------------------------------------|
B|------3-----3----------1-----1---------0-----0----------1-----1----|
G|----0-----0----------0-----0---------0-----0----------0-----0------|
D|--2-----2-----2----1-----1----1----2-----2-----2----2-----2-----2--| 
A|3-----3----------3-----1--------------------------3-----3----------|
E|---------------------------------0-----0---------------------------|

e|---------------------------------|
B|------1-----1----------3-----3---|
G|----0-----0----------0-----0-----|
D|--2-----2-----2----4-----4----4--| 
A|3-----3----------5-----5---------|
E|---------------------------------|


[Chorus]

e|-------------------------------------------------------------------|
B|------0-----0----------0-----0---------0-----0----------0-----0----|
G|----5-----5----------5-----5---------2-----2----------2-----2------| 
D|--0-----0-----0----0-----0----0----0-----0-----0----0-----0-----0--| X2
A|-------------------------------------------------------------------|
E|5-----5----------5-----5---------3-----3----------3-----3----------| 


[Outro]

e|-------------------------------------------------------------------|
B|------0-----0----------0-----0---------0-----0----------0-----0----|
G|----5-----5----------5-----5---------2-----2----------2-----2------| 
D|--0-----0-----0----0-----0----0----0-----0-----0----0-----0-----0--| X5
A|-------------------------------------------------------------------|
E|5-----5----------5-----5---------3-----3----------3-----3----------| 

            
Submit corrections


        Zandbak Acoustic lessons Hard to play? Try these video lessons and learn fast Zandbak Acoustic lessons
        
↑ Back to top | Tablatures and chords for acoustic guitar and electric guitar, ukulele, drums are parodies/interpretations of the original songs. You may use it for private study, scholarship, research or language learning purposes only