» » »

M83 - Go Tabs

Artists:  A B C D E F G H I J K L M N O P Q R S T U V W X Y Z # 

Go Tabs

(ver. 1) Click to play this song!
M83
 Rating:
4.3/5 (25 votes)

 Go  lessons Tabs too difficult? Try these video lessons and learn fast
 
                [Pre-Chorus] 
e|-x-x-6-6-6-6-x-x-10-10-10-8-x-x-10-8-|-x-x-6-6-6-6-x-x-15-15-15-15-15-15-15-15------|
B|-x-x-8-8-8-8-x-x-8--8--8--8-x-x-8--8-|-x-x-6-6-6-6-x-x-12-12-12-12-12-12-12-12------|
G|-x-x-8-8-8-8-x-x-8--8--8--8-x-x-8--8-|-x-x-7-7-7-7-x-x-12-12-12-12-12-12-12-12------|
D|-------------------------------------|-----8-8-8-8----------------------------------| x2
A|-------------------------------------|----------------------------------------------|
E|-------------------------------------|----------------------------------------------|

[Chorus]
e|-x-x-6-6-6-6-x-x-10-10-10-8-x-x-10-8-|-x-x-6-6-6-6-x-x-15-15-15-15-15-15-15-15------|
B|-x-x-8-8-8-8-x-x-8--8--8--8-x-x-8--8-|-x-x-6-6-6-6-x-x-12-12-12-12-12-12-12-12------|
G|-x-x-8-8-8-8-x-x-8--8--8--8-x-x-8--8-|-x-x-7-7-7-7-x-x-12-12-12-12-12-12-12-12------| repeat
D|-------------------------------------|-----8-8-8-8----------------------------------| 
A|-------------------------------------|----------------------------------------------|
E|-------------------------------------|----------------------------------------------|
            
Submit corrections


        Go  lessons Hard to play? Try these video lessons and learn fast Go  lessons
        
↑ Back to top | Tablatures and chords for acoustic guitar and electric guitar, ukulele, drums are parodies/interpretations of the original songs. You may use it for private study, scholarship, research or language learning purposes only