Home » M » M83 »

M83 - Dark Moves Of Love Tabs

Artists:  A B C D E F G H I J K L M N O P Q R S T U V W X Y Z # 

Dark Moves Of Love Tabs

(ver. 1) Click to play this song!
M83
 Rating:
3/5 (26 votes)
                Intro (0:30)
 
e|-----------------------------------------------------------------------------------------|
B|-----------------------------------------------------------------------------------------|
G|-5-5-5-5-7-7-7-7-9-9-9-9-7-7-7-7-12-12-12-12-12-12-12-12-12b-12b-12b-12b-12b-12b-12b-12b-|
D|-5-5-5-5-7-7-7-7-9-9-9-9-7-7-7-7-12-12-12-12-12-12-12-12-12b-12b-12b-12b-12b-12b-12b-12b-|
A|-----------------------------------------------------------------------------------------|
E|-----------------------------------------------------------------------------------------|

Verse (0:39) x4

        D
e|------2---------------------------------------------------------------------|
B|------3---------------------------------------------------------------------|
G|------2---------------------------------------------------------------------| Let ring throughout
D|------0---------------------------------------------------------------------|
A|----------------------------------------------------------------------------|
E|----------------------------------------------------------------------------|
       F#m
e|------2---------------------------------------------------------------------|
B|------2---------------------------------------------------------------------|
G|------2---------------------------------------------------------------------| Let ring throughout
D|------4---------------------------------------------------------------------|   
A|------4---------------------------------------------------------------------|
E|------2---------------------------------------------------------------------|             
Submit corrections

↑ Back to top | Tablatures and chords for acoustic guitar and electric guitar, ukulele, drums are parodies/interpretations of the original songs. You may use it for private study, scholarship, research or language learning purposes only