» » »

Lynyrd Skynyrd - Missippi Kid Tabs

Artists:  A B C D E F G H I J K L M N O P Q R S T U V W X Y Z # 

Missippi Kid Tabs

(ver. 1) Click to play this song!
Lynyrd Skynyrd
 Rating:
4.3/5 (22 votes)

 Missippi Kid  lessons Tabs too difficult? Try these video lessons and learn fast
 
                                                        [section 1]
                                   E             E                             E         
     E
e-0-0-0-0-0-0-0-0-3-2-0-------------0-------------0-------3-2-0----------------0---------------0--|
b----------------------3-2-0----------2----1------2-------------3-2-0-------------2------1-----2--|
g---------------------------2-0-------2----1------2---------------------2-0-------2------1-----2--|
d-------------------------------------1-----------1-------------------------------1------------1--|
a-------------------------------------------------------------------------------------------------|
e-------------------------------------------------------------------------------------------------|


       A                 A          repeat sect 1  then     B7           A7
e------------------------------------------------------------0--|
b--0---------------------0-----------------------------------2--|
g------2---------1-------2-----------------------------------1--|
d------2---------1-------2-----------------------------------2--|
a------2---------1-------2-----------------------------------0--|
e------------------------------------------------------------2--|            
Submit corrections


        Missippi Kid  lessons Hard to play? Try these video lessons and learn fast Missippi Kid  lessons
        
↑ Back to top | Tablatures and chords for acoustic guitar and electric guitar, ukulele, drums are parodies/interpretations of the original songs. You may use it for private study, scholarship, research or language learning purposes only