» » »

Lynyrd Skynyrd - God And Guns Tabs

Artists:  A B C D E F G H I J K L M N O P Q R S T U V W X Y Z # 

God And Guns Tabs

(ver. 1) Click to play this song!
Lynyrd Skynyrd
 Rating:
3/5 (23 votes)

 God And Guns  lessons Tabs too difficult? Try these video lessons and learn fast
 
                God And Guns Lynyrd Skynyrd


(intro)

e:-----0-------------------------0-------------------------|
B:-0h2-----------------------0h2-----0---------------------|
G:--------3h4p3--1---------------------3-1-----------------|
D:--------------------------------------------5/6b---------|
A:----------------------2/4--------------------------------|
E:---------------------------------------------------------|

                         C#m
e:------4--------------------------------------------------|
B:---------5-----------------------------------------------|
G:----------6----------------------------------------------|
D:----------6----------------------------------------------|
A:------4--------------------------------------------------|
E:---------------------------------------------------------|

                          B9
e:---------------------------------------------------------|
B:---2-----------------------------------------------------|
G:---2-----------------------------------------------------|
D:-1-------------------------------------------------------|
A:---2-----------------------------------------------------|
E:---------------------------------------------------------|

                          F#

e:--2------------------------------------------------------|
B:--2------------------------------------------------------|
G:-----3---------------------------------------------------|
D:-------4-------------------------------------------------|
A:-------4-------------------------------------------------|
E:--2------------------------------------------------------|

                          E
e:---------------------------------------------------------|
B:---------------------------------------------------------|
G:---2-----------------------------------------------------|
D:---2-----------------------------------------------------|
A:-1-------------------------------------------------------|
E:-----------------------------------------------------

C#m
Last night I heard this politician
B9
Talking 'bout his brand new mission
F#                                             C#m
'Liked his plans, but they came undone when he got around with God and guns

I don't know how he grew up
B9
But it sure wasn't down at the hunting club
F#                                 C#m
Cause if it was he'd understand a little bit more about the working man

F#
God and guns
         C#m
Keep us strong
F#
That's what this country
             C#m
Was founded on
F#
Well we might aswell give up and run
                         F#  E  C#m
If we let them take our God and guns

C#m
I'm here in my back of the woods
B9
Where God is great and guns are good
F#
You really can't know that much about'm
C#m
If you think we're better off without'm

C#m
Well there was a time we ain't forgot
B9
You caressed all night with the doors unlocked
F#
But there ain't nobody save no more
C#m
So you say your prayers and you thank the lord

          F#
For that peace maker
                C#m
In the dresser drawer

F#
God and guns (God and guns)
        C#m
Keep us strong
                 F#
That's what this country, lord
            C#m
Was founded on
         F#
Well we might aswell give up and run,
                      F#   E   C#m
If we let 'm take our God and guns.
       F#
Yea we might aswell give up and run,
                      F#  E   C#m
If we let 'm take our God and guns!

Yeaaa
Ooh
God and guns            
Submit corrections


        God And Guns  lessons Hard to play? Try these video lessons and learn fast God And Guns  lessons
        
↑ Back to top | Tablatures and chords for acoustic guitar and electric guitar, ukulele, drums are parodies/interpretations of the original songs. You may use it for private study, scholarship, research or language learning purposes only