» » »

Lydia - Back To Bed Tabs

Artists:  A B C D E F G H I J K L M N O P Q R S T U V W X Y Z # 

Back To Bed Tabs

(ver. 1) Click to play this song!
Lydia
 Rating:
2.8/5 (29 votes)

 Back To Bed lessons Tabs too difficult? Try these video lessons and learn fast
 
                [Intro / Verse] x8
|---------------------------------------------|
|---------------------------------------------|
|---2----2----2--2--2-------------------------|
|---4----4----4--4--4--4----4--4--2----2--2---|
|---5----5----5--5--5--5----5--5--4----4--4---|
|----------------------3----3--3--5----5--5---|

"But you gotta tell me, what's it gonna be... Hailey"
|---------------------------------------------------------------|
|---------------------------------------------------------------|
|---2----2----2--2--2--------------------------2----2----2--2---|
|---4----4----4--4--4--4----4--4--2----2--2----4----4----4--4---|
|---5----5----5--5--5--5----5--5--4----4--4----5----5----5--5---|
|----------------------3----3--3--5----5--5---------------------|


[Chorus]
                     G
And she looks right at me
           A                       Bm
And said "God I love how you say that,
                    G
It sounds so epic."
          A                           Bm
She goes "All your friends will be waiting,
             G
So just come baaack,
A            Bm
baaaaack, to beeed."
                           G
My god I love how you say that.
            A (two downward strums)
Lets make a toast, to it.

La dada da da.

[Verse] x2
|---------------------------------------------|
|---------------------------------------------|
|---2----2----2--2--2-------------------------|
|---4----4----4--4--4--4----4--4--2----2--2---|
|---5----5----5--5--5--5----5--5--4----4--4---|
|----------------------3----3--3--5----5--5---|

[Small pause with verse] x2
|--------------------------------------------------------|
|--------------------------------------------------------|
|--------------2----2----2--2--2-------------------------|
|--------------4----4----4--4--4--4----4--4--2----2--2---|
|--------------5----5----5--5--5--5----5--5--4----4--4---|
|---------------------------------3----3--3--5----5--5---|

"La dada da daaa..."
[Small pause first]
|--------------------|
|--------------------|
|--------------2-----|
|--------------4--x8-|
|--------------5-----|
|--------------------|

[Verse] x4
|---------------------------------------------|
|---------------------------------------------|
|---2----2----2--2--2-------------------------|
|---4----4----4--4--4--4----4--4--2----2--2---|
|---5----5----5--5--5--5----5--5--4----4--4---|
|----------------------3----3--3--5----5--5---|

[Chorus]
                        G
And she looks right at me
           A                       Bm
And says "God I love how you say that,
                    G
It sounds so epic."
          A                           Bm
She goes "All your friends will be waiting,
             G
So just come baaack,
A            Bm
baaaaack, to beeed."
                           G
My god I love how you say that.
            A (two downward strums)
Lets make a toast, to it.

La dada da da.

[Verse] x5
|---------------------------------------------|
|---------------------------------------------|
|---2----2----2--2--2-------------------------|
|---4----4----4--4--4--4----4--4--2----2--2---|
|---5----5----5--5--5--5----5--5--4----4--4---|
|----------------------3----3--3--5----5--5---|

[End] (Single Strum)
|-------|
|-------|
|---2---|
|---4---|
|---5---|
|-------|            
Submit corrections


        Back To Bed lessons Hard to play? Try these video lessons and learn fast Back To Bed lessons
        
↑ Back to top | Tablatures and chords for acoustic guitar and electric guitar, ukulele, drums are parodies/interpretations of the original songs. You may use it for private study, scholarship, research or language learning purposes only