Home » L » Luxuslaerm »

Luxuslaerm - Liebt Sie Dich Wie Ich Ukulele

Artists:  A B C D E F G H I J K L M N O P Q R S T U V W X Y Z # 

Liebt Sie Dich Wie Ich Ukulele

(ver. 1) Click to play this song!
Luxuslaerm
Luxuslärm – Liebt sie dich wie ich
Drop D –tuning

Intro (wie ´Ref):
1x Dm, F, C, Gm

Heavy part:
2x D, C-D, D-H-C, 
D-F-G, D-Gis-G, D-F

Vers1:
                      Ais
Es muss wohl ziemlich schwer sein
              Gm
mich zu verstehen?
                      Dm
Ich tu´s ja manchmal selbst nicht –
              C
Kein Grund zu gehen!
		      Ais
Verzeih mir meine Launen.
		     Gm
Verzeih mir meine Wut.
	    Dm
kennt sie deine?
		C
Kennt sie dich gut?

Ref.:
			     Dm
Sag mir bringt sie dich zum lachen?
		   F
Wie erreicht sie dich?
		    C
Rührt sie dich zu Tränen?
		     Gm		(Bass: Gm/F/Gm/F)
Liebt sie dich wie ich?
		      Dm
Macht sie dich nur geil
		  F
Oder berührt sie dich?
		  C
Heilt sie deine Wunden?
		    Gm
Liebt sie dich wie ich?

2 x Heavy-Part

Vers2.:
              Ais
Es muss wohl leicht sein.
           Gm
Zu ihr zu gehen
                      Dm
Weil es bei uns grad Stress gibt –
         C
Du Feigling.
                 Ais
Ich liebe deine Launen,
                Gm
ich liebe deine Wut,

                       Dm
weil sie ein Teil von dir sind
             C
und wo bist du?

Ref.:
			     Dm
Sag mir bringt sie dich zum lachen?
		   F
Wie erreicht sie dich?
		    C
Rührt sie dich zu Tränen?
		     Gm
Liebt sie dich wie ich?
		      Dm
Macht sie dich nur geil
		  F
Oder berührt sie dich?
		  C		Gm
Heilt sie deine Wunden?
		    Ais
Liebt sie dich wie ich?

Bridge:
Ais	         F		   Gm
Mit dir durch jede Dunkelheit
		    Ais
Doch du bist nicht hier.
	          F	    Gm
Ich schaff das irgendwie allein
A
Red' ich mir ein!

4 x Heavy-Part

Ref.:

Baby bringt sie dich zum Lachen?
Wie erreicht sie dich?
Rührt sie dich zu Tränen?
Liebt sie dich wie ich?
Macht sie dich nur geil
Oder berührt sie dich?
Heilt sie deine Wunden?
Liebt sie dich wie ich?
Liebt sie dich wie ich?
Macht sie dich nur geil
Oder berührt sie dich?
Heilt sie deine Wunden?
Liebt sie dich wie ich?


Git Intro/Ref:
e--5-5-5-5--5-5-5--3-3-3--3-3-3-3--3-3-3-3-3-3-3-3---5-5-5-5-5-5-5-5---------|
h--5-5-5-6--6-6-6--5-5-5--6-6-6-6--5-5-5-5-6-6-6-6---5-5-5-5-8-8-8-8---------|
g--7-7-7-7--7-7-7--3-3-3--3-3-3-3--5-5-5-5-5-5-5-5---5-5-5-5-5-5-5-5---------|
d--7-7-7-7--7-7-7--3-3-3--3-3-3-3--5-5-5-5-5-5-5-5---5-5-5-5-5-5-5-5---------|
a--0-0-0-0--0-0-0--3-3-3--3-3-3-3--3-3-3-3-3-3-3-3---5-5-5-5-5-5-5-5---------|
D--0-0-0-0--0-0-0--3-3-3--3-3-3-3--x-x-x-x-x-x-x-x---5-5-5-5-5-5-5-5---------|

Git Vers:
e----------------------------------------------------------------------------|
h----------------------------------------------------------------------------|
g--2-2--2-2--2-0--2-0----2-2--2-2--2-0--2-0----------------------------------|
d-3-3--3-3--0-0---------3-3--3-3--0-0----------------------------------------|
a----------------3-3-------------------3-3-----------------------------------|
D----------------------------------------------------------------------------|


Git Heavy Part:
e----------------------------------------------------------------------------|
h----------------------------------------------------------------------------|
g----------------------------------------------------------------------------|
d----------------------------------------------------------------------------|
a--0---10-h12---0-h9-h10---0-h3-h5---0-h6-w5---0---3-------------------------|
D--0---10-h12---0-h9-h10---0-h3-h5---0-h6-w5---0---3-------------------------|


h	hammer on
w	slide down

comments?
            
Submit corrections

↑ Back to top | Tablatures and chords for acoustic guitar and electric guitar, ukulele, drums are parodies/interpretations of the original songs. You may use it for private study, scholarship, research or language learning purposes only