» » »

Lush - Deluxe Bass

Artists:  A B C D E F G H I J K L M N O P Q R S T U V W X Y Z # 

Deluxe Bass

(ver. 1) Click to play this song!
Lush
 Rating:
4/5 (4 votes)

 Deluxe lessons Tabs too difficult? Try these video lessons and learn fast
 
                This is my first tab, and might not be efficient. But, here it is anyway. :)!

Intro
G------------------------------------------------------------|
D------------------------------------------------------------|
A------------------------------------------------------------|
E-0-0-0-0-0-0-0-0-0-0-0-0-0-0-0-0-0-0-0-0-0-0-0-0-0-0-0-0-0-0|

Verse 1
G------------------------------------|
D------------------------------------| x3
A------------------------------------|
E-0-0-0-0-0-0-3-3-3-5-5-5-5-5-5-7-7-7|
-
G------------------------------------|
D------------------------------------|
A-------------------------------5-5-5|
E-0-0-0-0-0-0-3-3-3-2-2-2-2-2-2------|

Chorus 1
G------------------------------------------------------------------------|
D------------------------------------------------------------------------|
A------------------------------------------------------------------------|
E-3-3-3-3-3-3-2-2-2-2-2-2-5-5-5-5-5-5-7-7-7-7-7-7-5-5-5-5-5-5-2-2-2-2-2-2|

G------------------------|
D------------------------|
A------------------------|
E-5-5-5-5-5-5-3-3-3-3-3-3|

Verse 2
G------------------------------------|
D------------------------------------| x3
A------------------------------------|
E-0-0-0-0-0-0-3-3-3-5-5-5-5-5-5-7-7-7|
-
G------------------------------------|
D------------------------------------|
A-------------------------------5-5-5|
E-0-0-0-0-0-0-3-3-3-2-2-2-2-2-2------|

Chorus 2
G------------------------------------------------------------------------|
D------------------------------------------------------------------------|
A------------------------------------------------------------------------|
E-3-3-3-3-3-3-2-2-2-2-2-2-5-5-5-5-5-5-7-7-7-7-7-7-5-5-5-5-5-5-2-2-2-2-2-2|

G------------------------------------------------------------------------|
D------------------------------------------------------------------------|
A------------------------------------------------------------------------|
E-5-5-5-5-5-5-7-7-7-7-7-7-3-3-3-3-3-3-2-2-2-2-2-2-5-5-5-5-5-5-3-3-3-3-3-3|

G------------------------------------------------|
D------------------------------------------------|
A------------------------------------------------|
E-7-7-7-7-7-7-5-5-5-5-5-5-5-5-5-5-5-5-7-7-7-7-7-7|

Verse 3
G------------------------------------|
D------------------------------------| x3
A------------------------------------|
E-0-0-0-0-0-0-3-3-3-5-5-5-5-5-5-7-7-7|
-
G------------------------------------|
D------------------------------------|
A-------------------------------5-5-5|
E-0-0-0-0-0-0-3-3-3-2-2-2-2-2-2------|

Bridge
G------------------------|
D------------------------| x3 
A------------------------|
E-3-3-3-7-7-7-5-5-5-5-5-5|

G------------------------|
D------------------------|
A------------------------|
E-2-2-2-2-2-2-2-2-2-3-2-3|

Chorus 3
G------------------------------------------------------------------------|
D------------------------------------------------------------------------|
A------------------------------------------------------------------------|
E-3-3-3-3-3-3-2-2-2-2-2-2-5-5-5-5-5-5-7-7-7-7-7-7-5-5-5-5-5-5-2-2-2-2-2-2|

G------------------------------------------------------------------------|
D------------------------------------------------------------------------|
A------------------------------------------------------------------------|
E-5-5-5-5-5-5-7-7-7-7-7-7-3-3-3-3-3-3-2-2-2-2-2-2-5-5-5-5-5-5-3-3-3-3-3-3|

G------------------------------------------------|
D------------------------------------------------|
A------------------------------------------------|
E-7-7-7-7-7-7-5-5-5-5-5-5-5-5-5-5-5-5-7-7-7-7-7-7|

Outro
G------------------------------------|
D------------------------------------| x3
A------------------------------------|
E-0-0-0-0-0-0-3-3-3-5-5-5-5-5-5-7-7-7|
-
G------------------------------------|
D------------------------------------|
A-------------------------------5-5-5|
E-0-0-0-0-0-0-3-3-3-2-2-2-2-2-2------|

G------------------------------------|
D------------------------------------|
A-7~---------------------------------|
E------------------------------------|

Once again this is my first tab, so its probably bad. :(
I do not own this song, or anything related to it. I did this all by ear, and nothing else.
~Deathrayx323
            
Submit corrections


        Deluxe lessons Hard to play? Try these video lessons and learn fast Deluxe lessons
        
↑ Back to top | Tablatures and chords for acoustic guitar and electric guitar, ukulele, drums are parodies/interpretations of the original songs. You may use it for private study, scholarship, research or language learning purposes only