» » »

Lumineers - Stubborn Love Bass

Artists:  A B C D E F G H I J K L M N O P Q R S T U V W X Y Z # 

Stubborn Love Bass

(ver. 1) Click to play this song!
Lumineers
 Rating:
3.5/5 (26 votes)

 Stubborn Love lessons Tabs too difficult? Try these video lessons and learn fast
 
                Tuning: Standard
Intro (softly) 
G|------------------------------|--------------------------------------------|
D|------------------------------|--------------------------------------------|
A|--------------------3~--------|---------------------3~---------------------|
E|1----5~---------1-------------|-1-----5------3-----------------------------|

G|------------------------------|--------------------------------------------|
D|------------------------------|--------------------------------------------|
A|--------------------3~--------|---------------------3-3-3-3-3--------------|
E|1----5~ ---------1------------|-1-----5------3-----------------------------|

Verse 1 0:30
G|------------------------------|--------------------------------------------|
D|------------------------------|--------------------------------------------|
A|----------------1---3~--------|---------------------3~---------------------|
E|1----5~-----------------------|-1-----5------3-----------------------------|

G|------------------------------|--------------------------------------------|
D|------------------------------|--------------------------------------------|
A|----------------1---3~--------|---------------------3-3-3------------------|
E|1----5~ ----------------------|-1-----5------3-----------------------------|

 1:00
G|------------------------------|--------------------------------------------|
D|------------------------------|--------------------------------------------|
A|------3---3-------------------|------3---3---------------------------------|
E|1---1--------5---5---3---3----|1---1--------5---5---3---3------------------|

G|------------------------------|--------------------------------------------|
D|------------------------------|--------------------------------------------|
A|------3---3------------------3---3---3---3---------------------------------|
E|1---1--------5---5---3---3----|--------------------------------------------|

1:15
G|----------------------------------|----------------------------------------|
D|----------------------------------|----------------------------------------|
A|-----------------------3-3-3-3-3-3|-------------3-3-3-3-3-3----------------|
E|1-1--5-5-5-5-5-5--1-1-------------|1-1--5-5-3-3----------------------------|

G|----------------------------------|----------------------------------------|
D|----------------------------------|----------------------------------------|
A|-----------------------3-3-3-3-3-3|-------------3-3-3-3-3-3----------------|
E|1-1--5-5-5-5-5-5--1-1-------------|1-1--5-5-3-3----------------------------|

1:45
G|------------------------------|--------------------------------------------|
D|------------------------------|--------------------------------------------|
A|-----3~-----------------------|------3~------------------------------------|
E|1~--------3~-----5~-------5-3-|-1~---------3~----5~----5-3-----------------|

G|------------------------------|--------------------------------------------|
D|------------------------------|--------------------------------------------|
A|-------3-3-3-3----------------|-------3-3-3-3------------------------------|
E|1-1-1-1--------3-3-3-3-5-5-5-3|1-1-1-1--------3-3-3-3-5-5-5-3--------------|

2:20
G|----------------------------------|----------------------------------------|
D|----------------------------------|----------------------------------------|
A|-----------------------3-3-3-3-3-3|-------------3-3-3-3-3-3----------------|
E|1-1--5-5-5-5-5-5--1-1-------------|1-1--5-5-3-3----------------------------|

G|----------------------------------|----------------------------------------|
D|----------------------------------|----------------------------------------|
A|-----------------------3-3-3-3-3-3|-------------3-3-3-3-3-3----------------|
E|1-1--5-5-5-5-5-5--1-1-------------|1-1--5-5-3-3----------------------------|

2:50
G|------------------------------|--------------------------------------------|
D|------------------------------|--------------------------------------------|
A|------3---3-------------------|------3---3---------------------------------|
E|1---1--------5---5---3---3----|1---1--------5---5---3---3------------------|

G|------------------------------|--------------------------------------------|
D|------------------------------|--------------------------------------------|
A|------3---3------------------3---3---3---3---------------------------------|
E|1---1--------5---5---3---3----|--------------------------------------------|

3;10
G|------------------------------|--------------------------------------------|
D|------------------------------|--------------------------------------------|
A|-----3~-----------------------|------3~------------------------------------|
E|1~--------3~-----5~-------5-3-|-1~---------3~----5~----5-3-----------------|

G|------------------------------|--------------------------------------------|
D|------------------------------|--------------------------------------------|
A|-------3-3-3-3----------------|-------3-3-3-3------------------------------|
E|1-1-1-1--------3-3-3-3-5-5-5-3|1-1-1-1--------3-3-3-3-5-5-5-3--------------|

G|------------------------------|--------------------------------------------|
D|------------------------------|--------------------------------------------|
A|-----3~-----------------------|------3~------------------------------------|
E|1~--------3~-----5~-------5-3-|-1~---------3~----5~----5-3-----------------|

G|------------------------------|--------------------------------------------|
D|------------------------------|--------------------------------------------|
A|-------3-3-3-3----------------|-------3-3-3-3------------------------------|
E|1-1-1-1--------3-3-3-3-5-5-5-3|1-1-1-1--------3-3-3-3-5-5-5-3--------------|

G|------------------------------|--------------------------------------------|
D|------------------------------|--------------------------------------------|
A|-----3~-----------------------|------3~------------------------------------|
E|1~--------3~-----5~-------5-3-|-1~---------3~----5~~-----------------------|            
Submit corrections


        Stubborn Love lessons Hard to play? Try these video lessons and learn fast Stubborn Love lessons
        
↑ Back to top | Tablatures and chords for acoustic guitar and electric guitar, ukulele, drums are parodies/interpretations of the original songs. You may use it for private study, scholarship, research or language learning purposes only