Home » L » Lumineers »

Lumineers - Charlie Boy Chords

Artists:  A B C D E F G H I J K L M N O P Q R S T U V W X Y Z # 

Charlie Boy Chords

(ver. 1) Click to play this song!
Lumineers
 Rating:
4.3/5 (23 votes)
                [Intro]
 
      G             C     G    C  Em D  C     G
E|------------------0-0---------0----------------------------|
B|----------0-----3-----3-0-------3-0---3-----0--------------|
G|----0-0-2--------------------------------------------------|
D|-----------------------------------------------------------|
A|-----------------------------------------------------------|
E|-----------------------------------------------------------|  1x
 
 
[Verse 1]
 
     G             C     G    C  Em D   C     G
E|------------------0-0---------0----------------------------|
B|----------0-----3-----3-0-------3-0---3-1---0--------------|
G|----0-0-2--------------------------------------------------|
D|-----------------------------------------------------------|
A|-----------------------------------------------------------|
E|-----------------------------------------------------------|  1x
 
 
G    Gadd2   G*    C  Cadd9 G    C     Em7  D6 Cadd9 C G
Charlie boy, don't go to    war, first born in forty-four
G    Gadd2 G*   C   Cadd9 G     C  Em7   D6 Cadd9    G
Kennedy    made him be  - lieve we could do much more
 
 
[Chorus]
 
     G           Em          C         G
E|-----------------------------------------------------------|
B|-----------------------------------------0-1-0-------------|
G|-----------------------------------------------2-----------|
D|-----------------------------------------------------------|
A|-----------------------------------------------------------|
E|-----------------------------------------------------------|  1x
 
 
G       Em       C        G Gadd4 G Gadd2
Oooh-Oh-Oooh-Oh-Oooh-Oh-ooooh
G       Em       C        G
Oooh-Oh-Oooh-Oh-Oooh-Oh-ooooh
 
 
[Instrumental]
 
     G             C     G    C  Em D   C     G
E|------------------0-0---------0----------------------------|
B|----------0-----3-----3-0-------3-0---3-1---0--------------|
G|----0-0-2--------------------------------------------------|
D|-----------------------------------------------------------|
A|-----------------------------------------------------------|
E|-----------------------------------------------------------|  1x
 
 
[Verse 2]
 
     G              C     G    C    Em D  G
E|-----------------------------------------------------------|
B|-----------------------------------------------------------|
G|---0-0-----------------------------------------------------|
D|-------4-0----0---2---0------2--0--------------------------|
A|-----------------------2----------2--0---------------------|
E|----------------------------------------3------------------|  2x
 
G  Gmaj7 G         C    C2   G     C    C2     Em7*     D/A  G
Lilli  - an, don't hang your head, love should make you feel good
   G Gmaj7 G        C     C2   G      C   C2 Em7*   D/A     G
In u-ni  - form you raised a man, who vol-un-teered to stand
 
 
[Chorus]
 
     G           Em          C         G
E|-----------------------------------------------------------|
B|-----------------------------------------0-1-0-------------|
G|-----------------------------------------------2-----------|
D|-----------------------------------------------------------|
A|-----------------------------------------------------------|
E|-----------------------------------------------------------|  1x
 
 
G       Em       C        G Gadd4 G Gadd2
Oooh-Oh-Oooh-Oh-Oooh-Oh-ooooh
G       Em       C        G
Oooh-Oh-Oooh-Oh-Oooh-Oh-ooooh
 
 
[Bridge]
 
C         Em     G          D
Play the bugle, play the taps and
C         Em      G
Make your mothers proud
C          Em    G        D
Raise your rifles to the sky boys
C         Em     G
Fire that volley loud
 
 
[Instrumental]
 
      G             C     G    C  Em D  C     G
 
E|------------------0-0---------0----------------------------|
B|----------0-----3-----3-0-------3-0---3-----0--------------|
G|----0-0-2--------------------------------------------------|
D|-----------------------------------------------------------|
A|-----------------------------------------------------------|
E|-----------------------------------------------------------|  1x
 
 
[Verse 3]
 
     G              C     G    C     Em D  G
E|-----------------------------------------------------------|
B|-----------------------------------------------------------|
G|---0-0-----------------------------------------------------|
D|-------4-0----0---2---0------2--0--------------------------|
A|-----------------------2----------2--0---------------------|
E|----------------------------------------3------------------|  1x (only the second line)
 
G                C     G       C Em7     D     C   G
News was bad on Upland Ave, metuchen and mourn our loss
G    Gmaj7 G             C C2    G           C  C2    Em7*     D/A     G
Sons re  - belled, while fathers yelled, and mo-thers clutched the cross
 
 
[Chorus]
 
     G           Em          C         G
E|-----------------------------------------------------------|
B|-----------------------------------------0-1-0-------------|
G|-----------------------------------------------2-----------|
D|-----------------------------------------------------------|
A|-----------------------------------------------------------|
E|-----------------------------------------------------------|  1x
 
G       Em       C        G
Oooh-Oh-Oooh-Oh-Oooh-Oh-ooooh
G       Em       C        G
Oooh-Oh-Oooh-Oh-Oooh-Oh-ooooh
 
 
[Bridge]
 
C         Em     G          D
Play the bugle, play the taps and
C         Em      G
Make your fathers proud
C          Em    G        D
Raise your rifles to the sky boys
C         Em     G
Fire that volley loud
 
[Outro]
 
      G             C     G     C Em D  C     G
E|------------------0-0---------0----------------------------|
B|----------0-----3-----3-0-------3--0---3-----0-------------|
G|----0-0-2--------------------------------------------------|
D|-----------------------------------------------------------|
A|-----------------------------------------------------------|
E|-----------------------------------------------------------|  1x
            
Submit corrections

↑ Back to top | Tablatures and chords for acoustic guitar and electric guitar, ukulele, drums are parodies/interpretations of the original songs. You may use it for private study, scholarship, research or language learning purposes only