» » »

Lukas Graham - Love Someone Tabs

Artists:  A B C D E F G H I J K L M N O P Q R S T U V W X Y Z # 

Love Someone Tabs

(ver. 1) Click to play this song!
Lukas Graham
 Rating:
4.3/5 (19 votes)

 Love Someone lessons Tabs too difficult? Try these video lessons and learn fast
 
                [Intro + Verse]

   (C)             (Em)             (Am)           (G)       (F)
e|-------(x)-3-0--------(x)---------------(x)--0---------(x)--1----|
B|-----5-(x)------------(x)--8------------(x)----1-------(x)----1--|
G|----5--(x)----------9-(x)----9--------2-(x)----------0-(x)-------| x2
D|-------(x)---------9--(x)------------2--(x)---------0--(x)-------|
A|--3----(x)-------7----(x)----------0----(x)------------(x)-------|
E|-------(x)------------(x)---------------(x)-------3----(x)-------|

[Pre-Chorus]

  (F)              (G)      (Am)
e|-------(x)--1---------(x)-------|
B|-------(x)----1-------(x)--1----|
G|----2--(x)----------0-(x)--2--2-| x3
D|---3---(x)---------0--(x)--2----|
A|-------(x)------------(x)--0----|
E|-1-----(x)-------3----(x)-------|

  (F)              (G)      (Am)      (G)(F)
e|-------(x)--1---------(x)------------------|
B|-------(x)----1-------(x)--1------1--3--1--|
G|----2--(x)----------0-(x)--2--2---2--0--2--|
D|---3---(x)---------0--(x)--2---------------|
A|-------(x)------------(x)--0------0-----3--|
E|-1-----(x)-------3----(x)------------3-----|

[Chorus]

   (F)        (G)      (C)       (Am)
e|--------(x)-----------------(x)------------|
B|--------(x)--0---0--------1-(x)-1----1-----|
G|-----2--(x)--0-0---0------0-(x)-2--2---2---|
D|----3---(x)-------------2---(x)-2----------|
A|--------(x)-----------3-----(x)-0----------|
E|--1-----(x)--3--------------(x)------------|

   (F)        (G)       (Am)      
e|--------(x)-----------------(x)------------|
B|--------(x)--0---0--------1-(x)-1----1-----|
G|-----2--(x)--0-0---0------1-(x)-2--2---2---|
D|----3---(x)-------------2---(x)-2----------|
A|--------(x)-----------0-----(x)-0----------| repeat both x2
E|--1-----(x)--3--------------(x)------------|


[Verse 2]

   (C)             (Em)             (Am)           (G)       (F)
e|-------(x)-3-0--------(x)---------------(x)--0---------(x)--1----|
B|-----5-(x)------------(x)--8------------(x)----1-------(x)----1--|
G|----5--(x)----------9-(x)----9--------2-(x)----------0-(x)-------| x2
D|-------(x)---------9--(x)------------2--(x)---------0--(x)-------|
A|--3----(x)-------7----(x)----------0----(x)------------(x)-------|
E|-------(x)------------(x)---------------(x)-------3----(x)-------|

[Pre-Chorus 2]

  (F)              (G)      (Am)
e|-------(x)--1---------(x)-------|
B|-------(x)----1-------(x)--1----|
G|----2--(x)----------0-(x)--2--2-| x3
D|---3---(x)---------0--(x)--2----|
A|-------(x)------------(x)--0----|
E|-1-----(x)-------3----(x)-------|

  (F)              (G)      (Am)      (G)(F)
e|-------(x)--1---------(x)------------------|
B|-------(x)----1-------(x)--1------1--3--1--|
G|----2--(x)----------0-(x)--2--2---2--0--2--|
D|---3---(x)---------0--(x)--2---------------|
A|-------(x)------------(x)--0------0-----3--|
E|-1-----(x)-------3----(x)------------3-----|

[Chorus 2]

   (F)        (G)      (C)       (Am)
e|--------(x)-----------------(x)------------|
B|--------(x)--0---0--------1-(x)-1----1-----|
G|-----2--(x)--0-0---0------0-(x)-2--2---2---|
D|----3---(x)-------------2---(x)-2----------|
A|--------(x)-----------3-----(x)-0----------|
E|--1-----(x)--3--------------(x)------------|

   (F)        (G)       (Am)      
e|--------(x)-----------------(x)------------|
B|--------(x)--0---0--------1-(x)-1----1-----|
G|-----2--(x)--0-0---0------1-(x)-2--2---2---|
D|----3---(x)-------------2---(x)-2----------|
A|--------(x)-----------0-----(x)-0----------| repeat both x2
E|--1-----(x)--3--------------(x)------------|

[Bridge]

   (Dm)                (G)                 (Am)              (F)
e|--------(x)-----------------(x)----------------(x)----------------(x)---------|
B|------6-(x)-6----6----------(x)--------------1-(x)-1---1----------(x)---------|
G|------7-(x)-7--7---7------4-(x)-4---4--------2-(x)-2-2---2------2-(x)-2---2---|
D|----7---(x)---------------5-(x)-5-5---5-----2--(x)--------------3-(x)-3-3---3-|
A|--5-----(x)-------------5---(x)-----------0----(x)------------3---(x)---------|
E|--------(x)-----------3-----(x)----------------(x)----------1-----(x)---------|


[Verse + Outro]

   (C)             (Em)             (Am)           (G)       (F)
e|-------(x)-3-0--------(x)---------------(x)--0---------(x)--1----|
B|-----5-(x)------------(x)--8------------(x)----1-------(x)----1--|
G|----5--(x)----------9-(x)----9--------2-(x)----------0-(x)-------| x2
D|-------(x)---------9--(x)------------2--(x)---------0--(x)-------|
A|--3----(x)-------7----(x)----------0----(x)------------(x)-------|
E|-------(x)------------(x)---------------(x)-------3----(x)-------|

            
Submit corrections


        Love Someone lessons Hard to play? Try these video lessons and learn fast Love Someone lessons
        
↑ Back to top | Tablatures and chords for acoustic guitar and electric guitar, ukulele, drums are parodies/interpretations of the original songs. You may use it for private study, scholarship, research or language learning purposes only