» » »

Lukas Graham - 7 Years Tabs

Artists:  A B C D E F G H I J K L M N O P Q R S T U V W X Y Z # 

7 Years Tabs

(ver. 1) Click to play this song!
Lukas Graham
 Rating:
4.4/5 (14 votes)

 7 Years  lessons Tabs too difficult? Try these video lessons and learn fast
 
                [Intro]
D|3p2----2p0--0-0--|
G|---3p0-----1-1---|
C|-----------------|
F|-----------------|
A|-----------------|
D|-----------------|

[Verse]
You can use these chords: AM,F,C with fingerpicking 
or you can use my technique.

  AM shape + do the same with F,C chords
D|-------|3p2---2p0--0-0--|
G|-1-1-1-|---3p0----1-1---|
C|2-2-2--|----------------|
F|-------|----------------|
A|-------|----------------|
D|-------|----------------|

Whole song goes with this verse but you can use bits of intro.

[Solo]
D|2-3bp0---2|   2x
G|------3p0-|
C|----------|
F|----------|
A|----------|
D|----------|

This part is really fast
D|----------------------|-------------------------|
G|---2-4s6-6-6-5-6s11b--|-------------------------|
C|2h4-------------------|---------4-6-12b-12b-12b-|
F|----------------------|-----4-6b----------------|
A|----------------------|---4-4-------------------|
D|----------------------|-s4----------------------|            
Submit corrections


        7 Years  lessons Hard to play? Try these video lessons and learn fast 7 Years  lessons
        
↑ Back to top | Tablatures and chords for acoustic guitar and electric guitar, ukulele, drums are parodies/interpretations of the original songs. You may use it for private study, scholarship, research or language learning purposes only