» » »

Lucy Spraggan - Facebook Tabs

Artists:  A B C D E F G H I J K L M N O P Q R S T U V W X Y Z # 

Facebook Tabs

(ver. 1) Click to play this song!
Lucy Spraggan
 Rating:
4/5 (4 votes)

 Facebook lessons Tabs too difficult? Try these video lessons and learn fast
 
                Sorry for any msitakes
Lucy goes straight in to the song, strum G once
--*Strum*--

   *down*           *up*
      G   D
E---3---2------------3--------------------------------------------|
B---3---1------------3--------------------------------------------|
G---0---2---------------------------------------------------------|
D---0---0-------2---2---------------------------------------------|
A---2--------3-------3--------------------------------------------|
E---3-------------------------------------------------------------|

Play the tab about 9 times until she says

 D            A                                  B                              G
"If I poke you and you poke me can I automatically assume that we..."
---Continue this same pattern until,
G

I hate request for     And made          Middle names
  online games           Up
      D                           G
E---2-----------------------3------------------------3---|
B---1-----------------------3------------------------3---|
G---2-----------------------0------------------------0---|
D---0-----------------------0------------------------2---|
A---------------------------2------------------------3---|
E---------------------------3------------------------x---|

Continue this until
            
Submit corrections


        Facebook lessons Hard to play? Try these video lessons and learn fast Facebook lessons
        
↑ Back to top | Tablatures and chords for acoustic guitar and electric guitar, ukulele, drums are parodies/interpretations of the original songs. You may use it for private study, scholarship, research or language learning purposes only