» » »

Lucy Rose - Conversation Tabs

Artists:  A B C D E F G H I J K L M N O P Q R S T U V W X Y Z # 

Conversation Tabs

(ver. 1) Click to play this song!
Lucy Rose
 Rating:
4.3/5 (26 votes)

 Conversation lessons Tabs too difficult? Try these video lessons and learn fast
 
                [Intro]

e|---------------------------|---------------------------|
B|------1-----1-----1-----1--|------1-----1-----1-----1--|
G|---------------------------|---------------------------|
D|----2-----2-----2-----2----|----2-----2-----0-----0----|
A|--0-----0-----0-----0------|--0-----0-----2-----2------|
E|---------------------------|---------------------------|

e|---------------------------|-----------------------------|
B|------1-----1-----1-----0--|------1-----1p0-----0-----0--|
G|---------------------------|-----------------------------|
D|----0-----0-----0-----0----|----0-----0-------0-----0----|
A|---------------------------|-----------------------------|
E|--2-----2-----2-----2------|--1-----1-------1-----1------|

e|---------------------------|
B|------0-----0-----0-----0--|
G|---------------------------|
D|----0-----0-----0-----0----|
A|---------------------------|
E|--1-----1-----0-----0------|


[Verse 1]

e|---------------------------|---------------------------|
B|------1-----1-----1-----1--|------1-----1-----1-----0--|
G|---------------------------|---------------------------|
D|----2-----2-----0-----0----|----0-----0-----0-----0----|
A|--0-----0-----2-----2------|---------------------------|
E|---------------------------|--2-----2-----2-----2------|
  Conversation don't come easy             But I've got a

e|-----------------------------|---------------------------|
B|------1-----1p0-----0-----0--|------0-----0-----0-----0--|
G|-----------------------------|---------------------------|
D|----0-----0-------0-----0----|----0-----0-----0-----0----|
A|-----------------------------|---------------------------|
E|--1-----1-------1-----1------|--1-----1-----0-----0------|
  lot to say

e|---------------------------|---------------------------|
B|------1-----1-----1-----1--|------1-----1-----1-----0--|
G|---------------------------|---------------------------|
D|----2-----2-----0-----0----|----0-----0-----0-----0----|
A|--0-----0-----2-----2------|---------------------------|
E|---------------------------|--2-----2-----2-----2------|
  If you look at what we once had      Well it feels many

e|-----------------------------|---------------------------|
B|------1-----1p0-----0-----0--|------0-----0-----0-----0--|
G|-----------------------------|---------------------------|
D|----0-----0-------0-----0----|----0-----0-----0-----0----|
A|-----------------------------|---------------------------|
E|--1-----1-------1-----1------|--1-----1-----0-----0------|
  moons away                                   But I came


[Chorus]

e|---------------------------|---------------------------|
B|------1-----1-----1-----1--|------1-----1-----1-----0--|
G|---------------------------|---------------------------|
D|----2-----2-----2-----2----|----0-----0-----0-----0----|
A|--0-----0-----0-----0------|--3-----3-----3-----3------|
E|---------------------------|---------------------------|
  for you            I drew names for you

e|---------------------------|---------------------------|
B|------0-----0-----0-----0--|---------------------------|
G|---------------------------|------2-----2-----2-----0--|
D|----0-----0-----0-----0----|---------------------------|
A|---------------------------|----3-----3-----3-----3----|
E|--3-----3-----3-----3------|--1-----1-----1-----1------|
  It's true     No-one makes me high like you do    And I

e|---------------------------|---------------------------|
B|------1-----1-----1-----1--|------1-----1-----1-----0--|
G|---------------------------|---------------------------|
D|----2-----2-----2-----2----|----0-----0-----0-----0----|
A|--0-----0-----0-----0------|--3-----3-----3-----3------|
E|---------------------------|---------------------------|
  craved you          I lost sleep with you           Who 

e|---------------------------|---------------------------|
B|------0-----0-----0-----0--|---------------------------|
G|---------------------------|------2-----2-----2-----2--|
D|----0-----0-----0-----0----|---------------------------|
A|---------------------------|----3-----3-----3-----3----|
E|--3-----3-----3-----3------|--1-----1-----1-----1------|
  knew         No-one loves me quite like you do

e|---------------------------|
B|---------------------------|
G|------2-----2-----2-----0--|
D|---------------------------|
A|----3-----3-----3-----3----|
E|--1-----1-----1-----1------|


[Verse 2]

e|---------------------------|---------------------------|
B|------1-----1-----1-----1--|------1-----1-----1-----0--|
G|---------------------------|---------------------------|
D|----2-----2-----0-----0----|----0-----0-----0-----0----|
A|--0-----0-----2-----2------|---------------------------|
E|---------------------------|--2-----2-----2-----2------|
  Read me wrong you won't be the first   And sure as hell

e|-----------------------------|---------------------------|
B|------1-----1p0-----0-----0--|------0-----0-----0-----0--|
G|-----------------------------|---------------------------|
D|----0-----0-------0-----0----|----0-----0-----0-----0----|
A|-----------------------------|---------------------------|
E|--1-----1-------1-----1------|--1-----1-----0-----0------|
  not the last

e|---------------------------|---------------------------|
B|------1-----1-----1-----1--|------1-----1-----1-----0--|
G|---------------------------|---------------------------|
D|----2-----2-----0-----0----|----0-----0-----0-----0----|
A|--0-----0-----2-----2------|---------------------------|
E|---------------------------|--2-----2-----2-----2------|
  No-one told us this was easy        But we felt like it

e|-----------------------------|---------------------------|
B|------1-----1p0-----0-----0--|------0-----0-----0-----0--|
G|-----------------------------|---------------------------|
D|----0-----0-------0-----0----|----0-----0-----0-----0----|
A|-----------------------------|---------------------------|
E|--1-----1-------1-----1------|--1-----1-----0-----0------|
  should've been                               But I came


[Chorus]

e|---------------------------|---------------------------|
B|------1-----1-----1-----1--|------1-----1-----1-----0--|
G|---------------------------|---------------------------|
D|----2-----2-----2-----2----|----0-----0-----0-----0----|
A|--0-----0-----0-----0------|--3-----3-----3-----3------|
E|---------------------------|---------------------------|
  for you            I drew names for you

e|---------------------------|---------------------------|
B|------0-----0-----0-----0--|---------------------------|
G|---------------------------|------2-----2-----2-----0--|
D|----0-----0-----0-----0----|---------------------------|
A|---------------------------|----3-----3-----3-----3----|
E|--3-----3-----3-----3------|--1-----1-----1-----1------|
  It's true     No-one lets me down like you do     And I

e|---------------------------|---------------------------|
B|------1-----1-----1-----1--|------1-----1-----1-----0--|
G|---------------------------|---------------------------|
D|----2-----2-----2-----2----|----0-----0-----0-----0----|
A|--0-----0-----0-----0------|--3-----3-----3-----3------|
E|---------------------------|---------------------------|
  craved you          I lost sleep with you           Who 

e|---------------------------|---------------------------|
B|------0-----0-----0-----0--|---------------------------|
G|---------------------------|------2-----2-----2-----2--|
D|----0-----0-----0-----0----|---------------------------|
A|---------------------------|----3-----3-----3-----3----|
E|--3-----3-----3-----3------|--1-----1-----1-----1------|
  knew         No-one loves me quite like you do      But

e|---------------------------|
B|---------------------------|
G|------2-----2-----2-----0--|
D|---------------------------|
A|----3-----3-----3-----3----|
E|--1-----1-----1-----1------|
  no-one lets me down like you do


[Bridge]

e|---------------------------|---------------------------|
B|------3-----3-----3-----3--|------------------0-----0--|
G|---------------------------|------2-----0--------------|
D|----4-----4-----4-----4----|----------------0-----0----|
A|--2-----2-----2-----2------|----3-----3----------------|
E|---------------------------|--1-----1-----3-----3------|

e|---------------------------|---------------------------|
B|------3-----3-----3-----3--|------------------0-----0--|
G|---------------------------|------2-----0--------------|
D|----4-----4-----4-----4----|----------------0-----0----|
A|--2-----2-----2-----2------|----3-----3----------------|
E|---------------------------|--1-----1-----3-----3------|

e|---------------------------|---------------------------|
B|------3-----3-----3-----3--|------------------0-----0--|
G|---------------------------|------2-----0--------------|
D|----4-----4-----4-----4----|----------------0-----0----|
A|--2-----2-----2-----2------|----3-----3----------------|
E|---------------------------|--1-----1-----3-----3------|
                   And this is your last chance

e|---------------------------|---------------------------|
B|------3-----3-----3-----3--|------------------0-----0--|
G|---------------------------|------2-----0--------------|
D|----4-----4-----4-----4----|----------------0-----0----|
A|--2-----2-----2-----2------|----3-----3----------------|
E|---------------------------|--1-----1-----3-----3------|
                    To figure out             That I came


[Chorus]

e|---------------------------|---------------------------|
B|------1-----1-----1-----1--|------1-----1-----1-----0--|
G|---------------------------|---------------------------|
D|----2-----2-----2-----2----|----0-----0-----0-----0----|
A|--0-----0-----0-----0------|--3-----3-----3-----3------|
E|---------------------------|---------------------------|
  for you           And I drew names for you

e|---------------------------|---------------------------|
B|------0-----0-----0-----0--|---------------------------|
G|---------------------------|------2-----2-----2-----0--|
D|----0-----0-----0-----0----|---------------------------|
A|---------------------------|----3-----3-----3-----3----|
E|--3-----3-----3-----3------|--1-----1-----1-----1------|
  It's true     No-one makes me high like you do    And I

e|---------------------------|---------------------------|
B|------1-----1-----1-----1--|------1-----1-----1-----0--|
G|---------------------------|---------------------------|
D|----2-----2-----2-----2----|----0-----0-----0-----0----|
A|--0-----0-----0-----0------|--3-----3-----3-----3------|
E|---------------------------|---------------------------|
  craved you          I lost sleep with you           Who 

e|---------------------------|---------------------------|
B|------0-----0-----0-----0--|---------------------------|
G|---------------------------|------2-----2-----2-----2--|
D|----0-----0-----0-----0----|---------------------------|
A|---------------------------|----3-----3-----3-----3----|
E|--3-----3-----3-----3------|--1-----1-----1-----1------|
  knew         No-one loves me quite like you do      But

e|---------------------------|---------------------------|
B|---------------------------|---------------------------|
G|------2-----2-----2-----2--|---------let ring----------|
D|---------------------------|---------------------------|
A|----3-----3-----3-----3----|---------------------------|
E|--1-----1-----1-----1------|---------------------------|
  no-one lets me down like you do


            
Submit corrections


        Conversation lessons Hard to play? Try these video lessons and learn fast Conversation lessons
        
↑ Back to top | Tablatures and chords for acoustic guitar and electric guitar, ukulele, drums are parodies/interpretations of the original songs. You may use it for private study, scholarship, research or language learning purposes only