Home » L » Lucio Battisti »

Lucio Battisti - Un Avventura Tabs

Artists:  A B C D E F G H I J K L M N O P Q R S T U V W X Y Z # 

Un Avventura Tabs

(ver. 1) Click to play this song!
Lucio Battisti
w/ no capo
e|-----------------------------------------------------------------------------|
B|-1-2-4---2-1------2-1--------------------------------------------------------|
G|-----5-------3--------3------------------------------------------------------|
D|-----6--------3---------1----1h3p1h3-1---------------------------------------|
A|--------------4---------1----------------------------------------------------|
E|-----------------------------------------------------------------------------|X2

w/ capo
e|-----------------------------------------------------------------------------|
B|-0-1-3---1-0------1-0--------------------------------------------------------|
G|-----4-------2--------2------------------------------------------------------|
D|-----5--------2---------0----0h2p0h2-0---------------------------------------|
A|--------------3---------0----------------------------------------------------|
E|-----------------------------------------------------------------------------|X2

G      C     G
Non sara un'avventura,
         Bm                           E
non puo essere soltanto una primavera,
           Am
questo amore
               D
non e una stella
             C         D
che al mattino se ne va
      C            D
o no no no no no no,
       G C G
non sara, un'avventura,
           Bm                     E
questo amore e fatto solo di poesia
         Am          D
tu sei mia tu sei mia,
            C               D
fino a quando gli occhi miei
          C           D                  G
avran luce per guardare gli occhi tuoi,
          G              Bm
innamorato sempre di piu,
                  C             G
in fondo all'anima per sempre tu
G
perche non e una promessa,
                  Bm
ma e quel che sara,
                C
domani e sempre,
            G             D             G
sempre vivra, sempre vivra, sempre vivra,
                        G C G
no non sara un'avventura, un'avventura
             Bm                      E
non e un fuoco che col vento puo morire,
       Am                D
ma vivra quanto e il mondo
            C              D
fino a quando gli occhi miei
         C            D                    G
avran luce per guardare gli occhi tuoi,
          G               Bm
innamorato sempre di piu,
                 C              G
in fondo all'anima per sempre tu
                G
perche non e una promessa,
                  Bm
ma e quel che sara,
              C
domani e sempre,
G             D            G
sempre vivra, sempre vivra,
                        G                Bm
perche io sono innamorato e sempre di piu
                 C                     G
in fondo all'anima ci sei per sempre tu.

G Bm C end in G            
Submit corrections

↑ Back to top | Tablatures and chords for acoustic guitar and electric guitar, ukulele, drums are parodies/interpretations of the original songs. You may use it for private study, scholarship, research or language learning purposes only