Home » L » Lucio Battisti »

Lucio Battisti - Si Viaggiare Tabs

Artists:  A B C D E F G H I J K L M N O P Q R S T U V W X Y Z # 

Si Viaggiare Tabs

(ver. 1) Click to play this song!
Lucio Battisti
X  2
e|---4---4---------------------------------------|
B|---5---5-------------2---2---------------------|
G|---6---6-------------2---2---------------------|
D|---6---6---------2---2---2---------------------|
A|---4---4---------2-------------------2-/-3-/-4-|
E|---4---4---------------------3---5-------------|

BRIDGE  X  2
e|---4---4---4---4---4---4---4---4---4---4---4---|
B|---4---4---4---4---4---4---4---4---4---4---4---|
G|---5---5---5---5---6---5---5---5---5---6---5---|
D|---6---6---6---6---6---6---6---6---6---6---6---|
A|---4---4---4---4---4---4---4---4---4---4---4---|
E|---4---4---4---4---4---4---4---4---4---4---4---|

STROFA
e|---4---4---------------------|
B|---4---5---------------2-----|
G|---4---6---------------2-----|
D|---6---6-----------2---2-----|
A|---6---4-----------2---------|
E|---4---4---------------------|

Quel gran genio del mio amico

Lui saprebbe cosa fare

Lui saprebbe come aggiustare
       
Con un cacciavite in mano fa miracoli

e|---4---4---4---4---------------------------------|
B|---5---5---5---5-------2---2---------------------|
G|---6---6---6---6-------2---2---------------------|
D|---6---6---6---6---2---2---2---------------------|
A|---4---4---4---4---2-------------------2-/-3-/-4-|
E|---4---4---4---4---------------3---5-------------|

e|---4---4---------------------|
B|---4---5---------------2-----|
G|---4---6---------------2-----|
D|---6---6-----------2---2-----|
A|---6---4-----------2---------|
E|---4---4---------------------|

Ti regolerebbe il minimo alzandolo un po'

E non picchieresti in testa cosi forte no

E potresti ripartire certamente non volare ma... viaggiare


e|---0--0--0--0--0----2--2--2--2--2---|
B|---0--0--0--0--0----2--2--2--2--2---|
G|---2--2--2--2--2----4--4--4--4--4---|
D|---4--4--4--4--4----4--4--4--4--4---|
A|---4--4--4--4--4----2--2--2--2--2---|
E|---0--0--0--0--0----2--2--2--2--2---|

Si viaggiare evitando le buche piu dure
     
Senza per questo cadere nelle tue paure
     
Gentilmente senza fumo con amore
    
Dolcemente viaggiare
     
Rallentando per poi accelerare
    
Con un ritmo fluente di vita nel cuore
  
Gentilmente senza strappi al motore

E tornare a viaggiare e di notte con i fari illuminare

Chiaramente la strada per saper dove andare

Con coraggio gentilmente, gentilmente

Dolcemente viaggiare

Nanananana

Nananana nananana

e|---4---4---4---4---------------------------------|
B|---5---5---5---5-------2---2---------------------|
G|---6---6---6---6-------2---2---------------------|
D|---6---6---6---6---2---2---2---------------------|
A|---4---4---4---4---2-------------------2-/-3-/-4-|
E|---4---4---4---4---------------3---5-------------|

e|---4---4---------------------|
B|---4---5---------------2-----|
G|---4---6---------------2-----|
D|---6---6-----------2---2-----|
A|---6---4-----------2---------|
E|---4---4---------------------|

Quel gran genio del mio amico
con le mani sporche d'olio
capirebbe molto meglio
meglio certo di buttare, riparare
Pulirebbe forse il filtro soffiandoci un po'
scinderesti poi la gente quella chiara dalla no
e potresti ripartire certamente non volare
ma viaggiare

e|---0--0--0--0--0----2--2--2--2--2---|
B|---0--0--0--0--0----2--2--2--2--2---|
G|---2--2--2--2--2----4--4--4--4--4---|
D|---4--4--4--4--4----4--4--4--4--4---|
A|---4--4--4--4--4----2--2--2--2--2---|
E|---0--0--0--0--0----2--2--2--2--2---|

Si viaggiare evitando le buche piu dure
senza per questo cadere nelle tue paure
gentilmente senza fumo con amore
dolcemente viaggiare
rallentando per poi accelerare
con un ritmo fluente di vita nel cuore
gentilmente senza strappi al motore

E tornare a viaggiare e di notte con i fari illuminare
chiaramente la strada per saper dove andare
Con coraggio gentilmente, gentilmente
dolcemente viaggiare
nanananana
Nananana nananana


Si viaggiare didididididididi
Didididididididi didididididididi
Dolcemente viaggiare rallentando per poi accelerare
con un ritmo fluente di vita nel cuore
gentilmente senza strappi al motore
Nananananananananana
nanananana
            
Submit corrections

↑ Back to top | Tablatures and chords for acoustic guitar and electric guitar, ukulele, drums are parodies/interpretations of the original songs. You may use it for private study, scholarship, research or language learning purposes only