Home » L » Low »

Low - Weight Of The Water Tabs

Artists:  A B C D E F G H I J K L M N O P Q R S T U V W X Y Z # 

Weight Of The Water Tabs

(ver. 1) Click to play this song!
Low
-------------------------------------------------------------------------------
-------------------------------------------------------------------------------

Tuning:DGDGBD
(i.e. from standard tuning, tune the 1st, 2nd and 6th strings down one step)

verse

d|--------------|------------|------------|-------------|
b|-11-----11----|-10----8----|-8-----8----|-6-----6-----|
g|-----0------0-|----0-----0-|----5-----5-|----5-----5--|
D|-8------8-----|-8-----8----|-7-----7----|-7-----7-----|
G|--------------|------------|------------|-------------|
D|--------------|------------|------------|-------------|

chorus

d|--------------|------------|------------|-------------|
b|-5------------|-5----------|-5----------|-3-----------|
g|-5------------|-5----------|-5----------|-3-----------|
D|-5------------|-3----------|-2----------|-0-----------| x1
G|-5------------|-3----------|-2----------|-0-----------|
D|--------------|------------|------------|-------------|

(additional chords for 2nd chorus only)
d|-0------------|-0----------|
b|-3------------|-3----------|
g|-2------------|-3----------|
D|-0------------|-0----------| x3
G|-2------------|-0----------|
D|-0------------|------------|

(ending)
d|--------------|------------|---|
b|--------------|------------|---|
g|-0------------|-0----------|-3-|
D|-1------------|-3----------|-0-|
G|-3------------|-5----------|-0-|
D|-1------------|-3----------|---|
            
Submit corrections

↑ Back to top | Tablatures and chords for acoustic guitar and electric guitar, ukulele, drums are parodies/interpretations of the original songs. You may use it for private study, scholarship, research or language learning purposes only