» » »

Low - Dinosaur Act Bass

Artists:  A B C D E F G H I J K L M N O P Q R S T U V W X Y Z # 

Dinosaur Act Bass

(ver. 1) Click to play this song!
Low
 Rating:
4/5 (4 votes)
                alrite, dont let the tab scare you off. if you are looking at this it means you have heard 
the song, so you know whats what. basically its just the same thing over and over again with 
little variations. you really have to strain your ears to pick up on the muted parts ((0)).
just listen to the song when you play and you'll pick it up really fast. just play it dynamically 
and impressively on the choruses.  thanks, ive never heard of these guys but this song was on my 
sisters computer so i decided to tab it cause it sounded so cool. enjoy.


opening 2x
g----------------------------------
d----------------------------------
a-3-2------------------------------
e------3-0-(0)(0)(0)-(0)(0)(0)-(0)-

g----------------------------------
d--------0-(0)(0)(0)-(0)(0)(0)-(0)-
a-3-2------------------------------
e------3---------------------------

then
g----------
d----------
a-3-2------
e------3-0-


verse
g-----------------------------------------------------
d-----------------------------0-0-0-(0)---(0)---------
a---------------------------------------------3-2-----
e-0-(0)-(0)-(0)-3-(3)-(3)-(3)----------(3)--------3-0-

g-----------------------------------------
d-----------------------------0-0-(0)---0-
a-----------------------------------------
e-0-(0)-(0)-(0)-3-(3)-(3)-(3)--------(3)--


chorus
g----------------------------------
d--------0-(0)(0)(0)-(0)(0)(0)-(0)-
a-3-2------------------------------
e------3---------------------------

bridge
g-------0-(0)(0)(0)-(0)(0)(0)-(0)-
d--------------------------------
a-3-2------------------------------
e-----0---------------------------

g--5-4-----
d------5-0-(strumming the 0)
a----------
e----------

g--5-4---0--(strumming the 0)
d------5----
a-----------
e-----------

verse after bridge
g-----------------------------------------
d-----------------------------(0)-(0)-(0)-
a-----------------------------------------
e-0-(0)-(0)-(0)-3-(3)-(3)-(3)-------------

finale
g---------
d-3-2-----
a-----3---
e-------0-

order:
opening
verse 
chorus 2x
verse
chorus 2x
bridge 2x
verse after bridge
chorus 2x
finale
            
Submit corrections

↑ Back to top | Tablatures and chords for acoustic guitar and electric guitar, ukulele, drums are parodies/interpretations of the original songs. You may use it for private study, scholarship, research or language learning purposes only