Home » L » Louis Armstrong »

Louis Armstrong - We Have All The Time In The World Chords

Artists:  A B C D E F G H I J K L M N O P Q R S T U V W X Y Z # 

We Have All The Time In The World Chords

(ver. 1) Click to play this song!
Louis Armstrong
[Intro]
      A                   F#m
e |---0----0---0-------|---2----2---2-----| [x2]
B |---2----2---2-------|---2----2---2-----|
G |---2----2---2-------|---2----2---2-----|
D |---2----2-----------|---4----4---------|
A |---0----0------0----|---4----4---------|
E |-----------------4--|---2----2------0--|


[Verse 1]
         A         F#m/A           C#m7/E   Em
We have all ...the time  ...in the world,
                 Bm              E7
Time enough for life ...to un - fold...
                  E7/G#  A                    E7
...All the prec - ious things ...love has in store!


[Verse 2]
         A         F#m/A          C#m7/E    Em
We have all ...the love ...in the world,
                  Bm
If that's all we have,
          E7                   E7/G#  A
You will find ...we need noth - ing more!


[Verse 3]
        C            Bb            F  Fmaj7  Bb
Every step ...of the way  ...will find us,
          Ab             Db/F              E7#5 E7
With the cares ...of the world ...far be - hind us!


[Verse 4]
         A         F#m/A          C#m7/E            Em
We have all ...the time ...in the world...just for love,
        F#m7              Bm      Bm7    A          F#m
Nothing more, ...nothing less, ...only---- ....love!


[Break]
      A                   F#m
e |---0----0---0-------|---2----2---2-----| [x4]
B |---2----2---2-------|---2----2---2-----|
G |---2----2---2-------|---2----2---2-----|
D |---2----2-----------|---4----4---------|
A |---0----0------0----|---4----4---------|
E |-----------------4--|---2----2------0--|


[Verse 5]
A          C             Bb           F   Fmaj7   Bb
    Every step ...of the way  ...will find us,
           Ab            Db/F              E7#5 E7
With the cares ...of the world ...far be - hind us!  Yes!


[Verse 6]
         A         F#m/A          C#m7/E            Em
We have all ...the time ...in the world...just for love,
        F#m7              Bm      Bm7    A          F#m
Nothing more, ...nothing less, ...only---- ....love!


[Coda]
      A                   F#m
e |---0----0---0-------|---2----2---2-----| [x4]
B |---2----2---2-------|---2----2---2-----|
G |---2----2---2-------|---2----2---2-----|
D |---2----2-----------|---4----4---------|
A |---0----0------0----|---4----4---------|
E |-----------------4--|---2----2------0--|

A
    ...Only--- love-----!            
Submit corrections

↑ Back to top | Tablatures and chords for acoustic guitar and electric guitar, ukulele, drums are parodies/interpretations of the original songs. You may use it for private study, scholarship, research or language learning purposes only