Home » L » Lotus »

Lotus - The Surf Tabs

Artists:  A B C D E F G H I J K L M N O P Q R S T U V W X Y Z # 

The Surf Tabs

(ver. 1) Click to play this song!
Lotus
[Solo] 
(3:08-3:56)
e|------------------10-10----10-12-10-------10-12-10----|
B|--7-7-10-10-12-12-------12----------12-12----------12-|
G|------------------------------------------------------|
D|------------------------------------------------------|
A|------------------------------------------------------|
E|------------------------------------------------------|

e|------7-7-----5-5------10-7\5-------10-7\5--|
B|--7-7-----5-5-----7-10---------7-10---------|
G|--------------------------------------------|
D|--------------------------------------------|
A|--------------------------------------------|
E|--------------------------------------------|

e|------------------10-10----10-12-10-------10-12-10----|
B|--7-7-10-10-12-12-------12----------12-12----------12-|
G|------------------------------------------------------|
D|------------------------------------------------------|
A|------------------------------------------------------|
E|------------------------------------------------------|

e|------7-7-----5-5------7---|
B|--7-7-----5-5-----7--10----|
G|---------------------------|
D|---------------------------|
A|---------------------------|
E|---------------------------|

e|--12-10-------12------12-10-------12----|
B|--------12-10----12---------12-10----10-|
G|----------------------------------------|
D|----------------------------------------|
A|----------------------------------------|
E|----------------------------------------| (x2)

e|------------------10-10----10-12-10-------10-12-10----|
B|--7-7-10-10-12-12-------12----------12-12----------12-|
G|------------------------------------------------------|
D|------------------------------------------------------|
A|------------------------------------------------------|
E|------------------------------------------------------|

e|------7-7-----5-5------10-7\5-------10-7\5--|
B|--7-7-----5-5-----7-10---------7-10---------|
G|--------------------------------------------|
D|--------------------------------------------|
A|--------------------------------------------|
E|--------------------------------------------|

e|------------------10-10----10-12-10-------10-12-10----|
B|--7-7-10-10-12-12-------12----------12-12----------12-|
G|------------------------------------------------------|
D|------------------------------------------------------|
A|------------------------------------------------------|
E|------------------------------------------------------|

e|------7-7-----5-5-------7--12--14-|
B|--7-7-----5-5-----7--10-----------|
G|----------------------------------|
D|----------------------------------|
A|----------------------------------|
E|----------------------------------|            
Submit corrections

↑ Back to top | Tablatures and chords for acoustic guitar and electric guitar, ukulele, drums are parodies/interpretations of the original songs. You may use it for private study, scholarship, research or language learning purposes only