Home » L » Lotus »

Lotus - Marisol Tabs

Artists:  A B C D E F G H I J K L M N O P Q R S T U V W X Y Z # 

Marisol Tabs

(ver. 1) Click to play this song!
Lotus
Bm Dm Am Bm

[0:12 to 1:06]

e|---------------------------------|
B|-----------10-7------------------|
G|--7-7/9--7------9-7-9---11-9-7h9-|
D|----------------------7----------|
A|---------------------------------|
E|---------------------------------|

[2:54 to 3:15]

e|--------------------------|------------------------------|
B|-----7---7--------7---7---|-----7---7--------7---7-------|
G|-7----7---6----7---7---6--|--7---7---6----7---7---9-7----|
D|--------------------------|-----------------------------9|
A|--------------------------|------------------------------|
E|--------------------------|------------------------------|

[3:16 to 4:00, and again from 4:44-5:05]

e|----------5-------------5-----|--------5-------------5----|
B|----7---7---7-----7---7---7---|--5---5---5-----5---5---5--|
G|--7---7-------7-6---6-------6-|7---7-------7-7---7-------7|
D|------------------------------|---------------------------|
A|------------------------------|---------------------------|
E|------------------------------|---------------------------|            
Submit corrections

↑ Back to top | Tablatures and chords for acoustic guitar and electric guitar, ukulele, drums are parodies/interpretations of the original songs. You may use it for private study, scholarship, research or language learning purposes only