Home » L » Lotus »

Lotus - Gilded Age Tabs

Artists:  A B C D E F G H I J K L M N O P Q R S T U V W X Y Z # 

Gilded Age Tabs

(ver. 1) Click to play this song!
Lotus
[Guitar I, 0:00-1:29]
A E B

[Guitar II, 0:13-0:50]
e|-------7-9-------------------|
B|--10-9-----9-7-9--5----5/7-7-|
G|-----------------------------|  x3
D|-----------------------------|
A|-----------------------------|
E|-----------------------------|

[Guitar II, 0:51-1:03]
e|----------|-----------|-----------|------------|
B|-5-7-9----|--5-7-9----|--5-7-9----|--4-5-4-5~--|
G|-------9--|--------9--|--------8--|------------|
D|----------|-----------|-----------|------------|
A|----------|-----------|-----------|------------|
E|----------|-----------|-----------|------------|

e|----------|-----------|-------------|
B|-5-7-9----|--5-7-9----|------5/7-7--|
G|-------9--|--------9--|--9-9--------|
D|----------|-----------|-------------|
A|----------|-----------|-------------|
E|----------|-----------|-------------|

[Guitar II, 1:04-1:15]
e|-12-----9-------------|--12----9-----------|
B|-----12---9-10-12-----|-----12---9-10-12---|
G|------------------6-9-|------------------9-|
D|----------------------|--------------------|
A|----------------------|--------------------|
E|----------------------|--------------------|

[Guitar II, 1:16-1:29]
e|----------|-----------|-----------|------------|
B|-5-7-9----|--5-7-9----|--5-7-9----|--4-5-4-5~--|
G|-------9--|--------9--|--------8--|------------|
D|----------|-----------|-----------|------------|
A|----------|-----------|-----------|------------|
E|----------|-----------|-----------|------------|

e|----------|-----------|-------------|
B|-5-7-9----|--5-7-9----|------5/7-7--|
G|-------9--|--------9--|--9-9--------|
D|----------|-----------|-------------|
A|----------|-----------|-------------|
E|----------|-----------|-------------|

[Guitar I, 1:30-1:42]
Db5 Em B5
Db5 Em B5
Db5 Em B5 A

[Guitar II, 1:30-1:42]
e|----7-9----------|----7-9--------------------|----7-9------------|
B|--9-----7---9\5--|--9-----7----7-7-7-7-7-7-9-|--9-----7----9-5-5-|
G|-----------------|---------------------------|-------------------|
D|-----------------|---------------------------|-------------------|
A|-----------------|---------------------------|-------------------|
E|-----------------|---------------------------|-------------------|

[Guitar I, 1:43-2:07]
Db5 E5 Bm F#5 A5 Em

[Guitar II, 1:55-2:07]
e|-12-----9-------------|--12----9-----------|
B|-----12---9-10-12-----|-----12---9-10-12---|
G|------------------6-9-|------------------9-|
D|----------------------|--------------------|
A|----------------------|--------------------|
E|----------------------|--------------------|

[Guitar I, 2:08-2:59]
A E B

[Guitar II, 2:08-2:32]
e|-------7-9-------------------|
B|--10-9-----9-7-9--5----5/7-7-|
G|-----------------------------|  x2
D|-----------------------------|
A|-----------------------------|
E|-----------------------------|

[Guitar II, 2:32-2:59]
e|----------|-----------|-----------|------------|
B|-5-7-9----|--5-7-9----|--5-7-9----|--4-5-4-5~--|
G|-------9--|--------9--|--------8--|------------|
D|----------|-----------|-----------|------------|
A|----------|-----------|-----------|------------|
E|----------|-----------|-----------|------------|

e|----------|-----------|-------------|
B|-5-7-9----|--5-7-9----|------5/7-7--|
G|-------9--|--------9--|--9-9--------|
D|----------|-----------|-------------|
A|----------|-----------|-------------|
E|----------|-----------|-------------| x2
[Guitar I, 2:59-3:14]
Db5 Em B5
Db5 Em B5
Db5 Em B5 A

[Guitar 1, 3:14-4:05]
Eadd9 E Esus4 E

[Guitar II, 3:40-4:05]
e|--7h9--9/12----|--7h9--9-12---|--7h9--9/12-------|
B|------------10-|------------9-|------------7-7-9-|
G|---------------|--------------|------------------|
D|---------------|--------------|------------------|
A|---------------|--------------|------------------|
E|---------------|--------------|------------------| x4

[Guitar 1, 4:06-4:55]
Eadd9 E Esus4 E

[Guitar 1, 4:56-5:21]
Eadd9 E Esus4 E

[Guitar 2, 4:56-5:21]
e|--7h9--9/12----|--7h9--9-12---|--7h9--9/12-------|
B|------------10-|------------9-|------------7-7-9-|
G|---------------|--------------|------------------|
D|---------------|--------------|------------------|
A|---------------|--------------|------------------|
E|---------------|--------------|------------------|  x4            
Submit corrections

↑ Back to top | Tablatures and chords for acoustic guitar and electric guitar, ukulele, drums are parodies/interpretations of the original songs. You may use it for private study, scholarship, research or language learning purposes only