Home » L » Lotus »

Lotus - Bubonic Tonic Tabs

Artists:  A B C D E F G H I J K L M N O P Q R S T U V W X Y Z # 

Bubonic Tonic Tabs

(ver. 1) Click to play this song!
Lotus
[Main chord sequence] 
D5 A5 G5 F5 E5
 
[Main lead motif] 
e|----|---------|---------|---------|--------|-------------|
B|--10|-10----10|-10----10|-10----10|-13-----|-------------|
G|----|----12---|----12---|----12---|----10--|--10-10-12~--|
D|----|---------|---------|---------|--------|-------------|
A|----|---------|---------|---------|--------|-------------|
E|----|---------|---------|---------|--------|-------------|

e|----|---------|---------|---------|--------|-------------------|
B|--10|-10----10|-10----10|-10----10|-13-----|--15---------------|
G|----|----12---|----12---|----12---|----10--|-----14p12-----12~-|
D|----|---------|---------|---------|--------|-----------15------|
A|----|---------|---------|---------|--------|-------------------|
E|----|---------|---------|---------|--------|-------------------|            
Submit corrections

↑ Back to top | Tablatures and chords for acoustic guitar and electric guitar, ukulele, drums are parodies/interpretations of the original songs. You may use it for private study, scholarship, research or language learning purposes only