Home » L » Los Lonely Boys »

Los Lonely Boys - Memories Tabs

Artists:  A B C D E F G H I J K L M N O P Q R S T U V W X Y Z # 

Memories Tabs

(ver. 1) Click to play this song!
Los Lonely Boys
(Intro)


Intro:

  G7sus4                   G7                G7sus4                   G7              
|------------------------|-----------------|------------------------|-----------------------------|
|------------------------|-----------------|------------------------|-----------------------------|
|------5-------------5---|------4----4-----|------5-------------5---|------4----4-----------------|
|----3----------3------3-|--------3--------|----3----------3------3-|--------3--------------------|
|-5------5--5------5-----|----5------------|-5------5--5------5-----|----5------------------------|
|------------------------|-3-------------3-|------------------------|-3-------------3---3-3-3-3-3-|

  G7sus4                   G7                G7sus4                   G7              
|------------------------|-----------------|------------------------|-----------------------------|
|------------------------|-----------------|------------------------|-----------------------------|
|------5-------------5---|------4----4-----|------5-------------5---|------4----4-----------------|
|----3----------3------3-|--------3--------|----3----------3------3-|--------3--------------------|
|-5------5--5------5-----|----5------------|-5------5--5------5-----|----5------------------------|
|------------------------|-3-------------3-|------------------------|-3-------------3---3-3-3-3-3-|
            
Submit corrections

↑ Back to top | Tablatures and chords for acoustic guitar and electric guitar, ukulele, drums are parodies/interpretations of the original songs. You may use it for private study, scholarship, research or language learning purposes only