» » »

Lorde - The Louvre Tabs

Artists:  A B C D E F G H I J K L M N O P Q R S T U V W X Y Z # 

The Louvre Tabs

(ver. 1) Click to play this song!
Lorde
 Rating:
4.3/5 (21 vote)

 The Louvre lessons Tabs too difficult? Try these video lessons and learn fast
 
                [Intro]
e|---------------------------------------------------------------------------|
B|---------------------------------------------------------------------------|
G|-5-x-x-5-x-x-5-x-x-5-x-x-5-x-x-5-x-x---------------------------------------|
D|-5-x-x-5-x-x-5-x-x-5-x-x-5-x-x-5-x-x---------------------------------------|
A|-3-x-x-3-x-x-3-x-x-3-x-x-3-x-x-3-x-x---------------------------------------|
E|---------------------------------------------------------------------------|

[Verse] x2
e|---------------------------------------------------------------------------|
B|---------------------------------------------------------------------------|
G|-5-x-x-5-x-x-5-x-x-5-x-x-5-x-x-5-x-x-9-x-x-9-x-x-9-x-x---------------------|
D|-5-x-x-5-x-x-5-x-x-5-x-x-5-x-x-5-x-x-9-x-x-9-x-x-9-x-x-3-x-x-3-x-x-3-x-x---|
A|-3-x-x-3-x-x-3-x-x-3-x-x-3-x-x-3-x-x-7-x-x-7-x-x-7-x-x-3-x-x-3-x-x-3-x-x---|
E|-------------------------------------------------------1-x-x-1-x-x-1-x-x---|

e|---------------------------------------------------------------------------|
B|---------------------------------------------------------------------------|
G|---------------------------------------------------------------------------|
D|-7-x-x-7-x-x-7-x-x-7-x-x-7-x-x-7-x-x-5-x-x-5-x-x-5-x-x-5-x-x-5-x-x-5-x-x---|
A|-7-x-x-7-x-x-7-x-x-7-x-x-7-x-x-7-x-x-5-x-x-5-x-x-5-x-x-5-x-x-5-x-x-5-x-x---|
E|-5-x-x-5-x-x-5-x-x-5-x-x-5-x-x-5-x-x-3-x-x-3-x-x-3-x-x-3-x-x-3-x-x-3-x-x---|

[Chorus]
e|---------------------------------------------------------------------------|
B|---------------------------------------------------------------------------|
G|---------------------------------------------------------------------------|
D|-3-x-x-3-x-x-3-x-x-5-x-x-5-x-x-5-x-x-7-x-x-7-x-x-7-x-x-7-x-x-7-x-x-7-x-x---|
A|-3-x-x-3-x-x-3-x-x-5-x-x-5-x-x-5-x-x-7-x-x-7-x-x-7-x-x-7-x-x-7-x-x-7-x-x---| 
E|-1-x-x-1-x-x-1-x-x-3-x-x-3-x-x-3-x-x-5-x-x-5-x-x-5-x-x-5-x-x-5-x-x-5-x-x---| x3

e|---------------------------------------------------------------------------|
B|---------------------------------------------------------------------------|
G|---------------------------------------------------------------------------|
D|-3-x-x-3-x-x-3-x-x-5-x-x-5-x-x-5-x-x-7-------------------------------------|
A|-3-x-x-3-x-x-3-x-x-5-x-x-5-x-x-5-x-x-7-------------------------------------|
E|-1-x-x-1-x-x-1-x-x-3-x-x-3-x-x-3-x-x-5-------------------------------------|

[Post-Chorus]
Percussion

[Verse 2]
e|---------------------------------------------------------------------------|
B|---------------------------------------------------------------------------|
G|-5-x-x-5-x-x-5-x-x-5-x-x-5-x-x-5-x-x-9-x-x-9-x-x-9-x-x---------------------|
D|-5-x-x-5-x-x-5-x-x-5-x-x-5-x-x-5-x-x-9-x-x-9-x-x-9-x-x-3-x-x-3-x-x-3-x-x---|
A|-3-x-x-3-x-x-3-x-x-3-x-x-3-x-x-3-x-x-7-x-x-7-x-x-7-x-x-3-x-x-3-x-x-3-x-x---|
E|-------------------------------------------------------1-x-x-1-x-x-1-x-x---|

e|---------------------------------------------------------------------------|
B|---------------------------------------------------------------------------|
G|---------------------------------------------------------------------------|
D|-7-x-x-7-x-x-7-x-x-7-x-x-7-x-x-7-x-x-5-x-x-5-x-x-5-x-x-5-x-x-5-x-x-5-x-x---|
A|-7-x-x-7-x-x-7-x-x-7-x-x-7-x-x-7-x-x-5-x-x-5-x-x-5-x-x-5-x-x-5-x-x-5-x-x---|
E|-5-x-x-5-x-x-5-x-x-5-x-x-5-x-x-5-x-x-3-x-x-3-x-x-3-x-x-3-x-x-3-x-x-3-x-x---| 

e|---------------------------------------------------------------------------|
B|---------------------------------------------------------------------------|
G|-5-x-x-5-x-x-5-x-x-5-x-x-5-x-x-5-x-x-9-x-x-9-x-x-9-x-x---------------------|
D|-5-x-x-5-x-x-5-x-x-5-x-x-5-x-x-5-x-x-9-x-x-9-x-x-9-x-x-3-x-x-3-x-x-3-x-x---|
A|-3-x-x-3-x-x-3-x-x-3-x-x-3-x-x-3-x-x-7-x-x-7-x-x-7-x-x-3-x-x-3-x-x-3-x-x---|
E|-------------------------------------------------------1-x-x-1-x-x-1-x-x---|

e|---------------------------------------------------------------------------|
B|---------------------------------------------------------------------------|
G|---------------------------------------------------------------------------|
D|-7-x-x-7-x-x-7-x-x-5-x-x-5-x-x-5-x-x-3-x-x-3-x-x-3-x-x-5-x-x-5-x-x-5-x-x---|
A|-7-x-x-7-x-x-7-x-x-5-x-x-5-x-x-5-x-x-3-x-x-3-x-x-3-x-x-5-x-x-5-x-x-5-x-x---|
E|-5-x-x-5-x-x-5-x-x-3-x-x-3-x-x-3-x-x-1-x-x-1-x-x-1-x-x-3-x-x-3-x-x-3-x-x---| 

[Chorus]
e|---------------------------------------------------------------------------|
B|---------------------------------------------------------------------------|
G|---------------------------------------------------------------------------|
D|-3-x-x-3-x-x-3-x-x-5-x-x-5-x-x-5-x-x-7-x-x-7-x-x-7-x-x-7-x-x-7-x-x-7-x-x---|
A|-3-x-x-3-x-x-3-x-x-5-x-x-5-x-x-5-x-x-7-x-x-7-x-x-7-x-x-7-x-x-7-x-x-7-x-x---| 
E|-1-x-x-1-x-x-1-x-x-3-x-x-3-x-x-3-x-x-5-x-x-5-x-x-5-x-x-5-x-x-5-x-x-5-x-x---| x3

e|---------------------------------------------------------------------------|
B|---------------------------------------------------------------------------|
G|---------------------------------------------------------------------------|
D|-3-x-x-3-x-x-3-x-x-5-x-x-5-x-x-5-x-x-7-------------------------------------|
A|-3-x-x-3-x-x-3-x-x-5-x-x-5-x-x-5-x-x-7-------------------------------------|
E|-1-x-x-1-x-x-1-x-x-3-x-x-3-x-x-3-x-x-5-------------------------------------|

[Post-Chorus]
Percussion

[Outro] 3:10 repeat until it fades
e|---------------------------------------------------------------------------|
B|--5~--5-6-5-5~----5-6-5--------5-6-5---------------------------------------|
G|------------------------5~-----------7~------------------------------------|
D|---------------------------------------------------------------------------|
A|---------------------------------------------------------------------------|
E|---------------------------------------------------------------------------|

or

e|---------------------------------------------------------------------------|
B|---------------------------------------------------------------------------|
G|-5-x-x-5-x-x-5-x-x-5-x-x-5-x-x-5-x-x-9-x-x-9-x-x-9-x-x---------------------|
D|-5-x-x-5-x-x-5-x-x-5-x-x-5-x-x-5-x-x-9-x-x-9-x-x-9-x-x-3-x-x-3-x-x-3-x-x---|
A|-3-x-x-3-x-x-3-x-x-3-x-x-3-x-x-3-x-x-7-x-x-7-x-x-7-x-x-3-x-x-3-x-x-3-x-x---|
E|-------------------------------------------------------1-x-x-1-x-x-1-x-x---|

e|---------------------------------------------------------------------------|
B|---------------------------------------------------------------------------|
G|---------------------------------------------------------------------------|
D|-7-x-x-7-x-x-7-x-x-7-x-x-7-x-x-7-x-x-5-x-x-5-x-x-5-x-x-5-x-x-5-x-x-5-x-x---|
A|-7-x-x-7-x-x-7-x-x-7-x-x-7-x-x-7-x-x-5-x-x-5-x-x-5-x-x-5-x-x-5-x-x-5-x-x---|
E|-5-x-x-5-x-x-5-x-x-5-x-x-5-x-x-5-x-x-3-x-x-3-x-x-3-x-x-3-x-x-3-x-x-3-x-x---|             
Submit corrections


        The Louvre lessons Hard to play? Try these video lessons and learn fast The Louvre lessons
        
↑ Back to top | Tablatures and chords for acoustic guitar and electric guitar, ukulele, drums are parodies/interpretations of the original songs. You may use it for private study, scholarship, research or language learning purposes only