Home » L » Lorde »

Lorde - Tennis Court Bass

Artists:  A B C D E F G H I J K L M N O P Q R S T U V W X Y Z # 

Tennis Court Bass

(ver. 1) Click to play this song!
Lorde
Tuning: EADG

Verse - 00.00 - 00.42

G|---------------------------------------------------------------------------|
D|---------------------------------------------------------------------------|
A|---------------------------------------------------------------------------|
E|-3~---------5~---------1~--------1~----------------------------------------| x4

Chorus - 00.42 - 01.04

G|---------------------------------------------------------------------------|
D|---------------------------------------------------------------------------|
A|-----------------3-3-3-3-3-3-3-3-------------------------------------------|
E|-3-3-3-3-3-3-3-3----------------5-5-5-5-5-5-5-5-3-3-3-3-3-3-3-3------------|

G|---------------------------------------------------------------------------|
D|---------------------------------------------------------------------------|
A|-----------------3-3-3-3-3-3-3-3-------------------------------------------|
E|-1-1-1-1-1-1-1-1----------------3-3-3-3-3-3-3-3-5-5-5-5-5-5-5-5------------|

Verse - 01.04 - 01.46

G|---------------------------------------------------------------------------|
D|---------------------------------------------------------------------------|
A|---------------------------------------------------------------------------|
E|-3~---------5~---------1~--------1~----------------------------------------| x4

Chorus - 01.46 - 02.08

G|---------------------------------------------------------------------------|
D|---------------------------------------------------------------------------|
A|-----------------3-3-3-3-3-3-3-3-------------------------------------------|
E|-3-3-3-3-3-3-3-3----------------5-5-5-5-5-5-5-5-3-3-3-3-3-3-3-3------------|

G|---------------------------------------------------------------------------|
D|---------------------------------------------------------------------------|
A|-----------------3-3-3-3-3-3-3-3-------------------------------------------|
E|-1-1-1-1-1-1-1-1----------------3-3-3-3-3-3-3-3-5-5-5-5-5-5-5-5------------|

Bridge - 02.08 - 02.29

G|---------------------------------------------------------------------------|
D|---------------------------------------------------------------------------|
A|-----------------3-3-3-3-3-3-3-3-------------------------------------------|
E|-1-1-1-1-1-1-1-1----------------3-3-3-3-3-3-3-3-5-5-5-5-5-5-5-5------------| x2

Chorus - 02.34 - 02.56

G|---------------------------------------------------------------------------|
D|---------------------------------------------------------------------------|
A|-----------------3-3-3-3-3-3-3-3-------------------------------------------|
E|-3-3-3-3-3-3-3-3----------------5-5-5-5-5-5-5-5-3-3-3-3-3-3-3-3------------|

G|---------------------------------------------------------------------------|
D|---------------------------------------------------------------------------|
A|-----------------3-3-3-3-3-3-3-3-------------------------------------------|
E|-1-1-1-1-1-1-1-1----------------3-3-3-3-3-3-3-3-5-5-5-5-5-5-5-5------------|

Outro - 2.56 - End

G|---------------------------------------------------------------------------|
D|---------------------------------------------------------------------------|
A|---------------------------------------------------------------------------|
E|-5-5-5-5-5-5-5-5-5-5-5-5-5-5-5-5-3-3-3-3-3-3-3-3-5-5-5-5-5-5-5-5-----------| x2
            
Submit corrections

↑ Back to top | Tablatures and chords for acoustic guitar and electric guitar, ukulele, drums are parodies/interpretations of the original songs. You may use it for private study, scholarship, research or language learning purposes only