» » »

Liveloud - Reaching Bass

Artists:  A B C D E F G H I J K L M N O P Q R S T U V W X Y Z # 

Reaching Bass

(ver. 1) Click to play this song!
Liveloud
 Rating:
4/5 (4 votes)

 Reaching  lessons Tabs too difficult? Try these video lessons and learn fast
 
                Intro: Join in after the first chorus of the song

G|----------------------------14---|
D|---------------------------------|
A|-12\--------------------/12------|
E|------2--0--5---2--0--5----------|

Verse: Pretty Basic, listen to the cover to get the gist of the whole verse

G|---------------------------------------------------------------------------|
D|---------------------------------------------------------------------------|
A|--9--7--/12----12--9--9--7--/12----12--9--9--7--/12--12--9--9--7--/12--12--|
E|---------------------------------------------------------------------------|

Refrain:The Bass fill is a little off but eh... 

G|--------------------------------------------------|
D|------------------------------9-------------------|
A|--2--2/9---9/4--4----6h9-7-----------9------------|
E|-----------------/7-7------7-----7-------5-5-5----|

Chorus: Basic chorus, here are the main notes, just play them on how you feel. The A note, the 
last note, is held longer than the rest.
                       
G|-----------------------|
D|-----------------------|
A|-----------------------|
E|--0--2--5----0--2--5---|

Pre-Bridge or Chorus 2: Again very simple
                       2x
G|-----------------------|
D|-----------------------|
A|-----------------------|
E|--2--0--5----2--0--5---|

Instrumental or Solo: Do the lower octave first then the higher one! Feel free to add your bass
 groove/fill/line!
                      2x                           
G|------------------------------------------------------------|
D|------------------------------------------------------------|
A|----------------------------9--7--12----9--7----------------|
E|--2--0--5----2--0--5--------------------------5-------------|

Bridge: Join in, on the 2nd run through of the bridge, after the first part 
just do the B, C# and A. And at the very end slide to the octave, higher A and
then switch back to the lower A
                                                             
G|------------------------------------|----------------------------------------------|
D|--9-/11-----------------------------|----------------------------------------------|
A|--------12---/14--/16--\12-12-12-12-|----2--/4------2--/4------------11h12p11------|
E|------------------------------------|----------5----------5----5-5-5-----------\5--|

Chorus: Wait for the build up to start, and then start playing

G|---------------------------------------------------------------------------|
D|---------------------------------------------------------------------------|
A|--/7-7-7-7-7-7-7-7-/9-9-9-9-9-9-9-9-/12-12-12-12-12-12-12-12---------------|
E|-------------------------------------------------------------\5-5-5-5-5-5-5|
         
G|----------------------6h7p6------------------------------------------------|
D|---------------------7-----7-----------------------------------------------|
A|------------------------------------4h5p4----------------------------------|
E|--0--2--5---0--2--5----------5-----5-----5-0-------------------------------|

Chorus 2: Bass fill is close enough -ish, just time it right. You can make your own also if you want.         
                      
                       2x    
G|-------------------------------------------------|
D|----------------------------7h9p7----------------|
A|---------------------------7-----9-7-5-----------|
E|--2--0--5----2--0--5-----------------------------|

Outro:

G|-----------------------|
D|-----------------------|
A|-----------------------|
E|--2--0--5----2--0--5---|            
Submit corrections


        Reaching  lessons Hard to play? Try these video lessons and learn fast Reaching  lessons
        
↑ Back to top | Tablatures and chords for acoustic guitar and electric guitar, ukulele, drums are parodies/interpretations of the original songs. You may use it for private study, scholarship, research or language learning purposes only