» » »

Little River Band - Reminiscing Tabs

Artists:  A B C D E F G H I J K L M N O P Q R S T U V W X Y Z # 

Reminiscing Tabs

(ver. 1) Click to play this song!
Little River Band
 Rating:
4.4/5 (7 votes)

 Reminiscing lessons Tabs too difficult? Try these video lessons and learn fast
 
                [Intro]
[the first chord is a eb major bar chord 
on the A string 6th fret,
and use your pinky to 
hit the 10th fret]
e|-------------------------|-------------------------|
B|------x---------8-8-6----|------x---------11-11-9--|
G|------x-8-----8-8-8-8----|------x-8-----8-11-11-11-|
D|-8-10-x-8--10-8-6-6-6----|-8-10-x-8--10-8-9--9--9--|
A|-6-6--x--6-6----8-8-8----|-6-6--x--6-6----11-11-11-|
E|-------------------------|-------------------------|
                  
e|-------------------------|-------------------------|
B|-9--7---7--5---3--3-3-3--|-3-3-3-------------------|
G|-9--9---7--7---4--2-4-2--|-2-4-2-------------------|
D|-7--7---5--5---4--4-4-4--|-4-4-4-------------------|
A|-9--9---7--7------5---5--|-5---5-------------------|
E|---------------3----3----|---3---------------------|


[Verse]
The strum pattern (tu tudoodoodoo tudoodoodoo) is the same for all chords
So to save time I will only write a single chord but the pattern is implied.
Here is an example of the strum pattern 
                      [ x2 ]
e|2--2-2-2-2---2-2-2-2------|
B|3--3-3-3-3---3-3-3-3-----|
G|4--4-4-4-4---4-4-4-4-----|
D|5--5-5-5-5---5-5-5-5-----|
A|-------------------------|
E|3--3-3-3-3---3-3-3-3-----|

The Chords in the verse are as followed
                    [ Reapeat this chord progression once ]
e|-2---2---2---------------|
B|-3---3---2---------------|
G|-4---3---2---------------|
D|-5---4---1---------------|
A|---------2---------------|
E|-3-----------------------|
                [ Verse Ends with this, listen for when to play the chords]
                             
e|-2---------1-------------|-3-----------3-----------|
B|-3---------1-------------|-2-----3-----2-----------|
G|-4---------1-------------|-3-----4-----3-----------|
D|-5-----------------------|-0-----5-----0-----------|
A|-------------------------|-------------------------|
E|-3---------1-------------|-------------------------|

At 1:40 "Hurry Don't be late"
Play this once dont repeat, and play each chord for one bar and two bars for the last chord
e|-2---2---2---------------|
B|-3---3---2---------------|
G|-4---3---2---------------|
D|-5---4---1---------------|
A|---------2---------------|
E|-3-----------------------|
then 
e|-2---------1-------------|-3-----------3-----------|
B|-3---------1-------------|-2-----3-----2-----------|
G|-4---------1-------------|-3-----4-----3-----------|
D|-5-----------------------|-0-----5-----0-----------|
A|-------------------------|-------------------------|
E|-3---------1-------------|-------------------------|

            
Submit corrections


        Reminiscing lessons Hard to play? Try these video lessons and learn fast Reminiscing lessons
        
↑ Back to top | Tablatures and chords for acoustic guitar and electric guitar, ukulele, drums are parodies/interpretations of the original songs. You may use it for private study, scholarship, research or language learning purposes only