Home » L » Little River Band »

Little River Band - Light Of Day Tabs

Artists:  A B C D E F G H I J K L M N O P Q R S T U V W X Y Z # 

Light Of Day Tabs

(ver. 1) Click to play this song!
Little River Band
 Rating:
4.3/5 (6 votes)
                [Intro]
 
E|--0--0--0----|
B|--3--0-(3)---|
G|--2--1--1----|
D|--3--2--2----|
A|--2--2--2----|
E|-----0--0----|
 
E|-----------------------------------|
B|--/13--/15--13--12-12\--9-9\--5-5--|
G|-----------------------------------|
D|-----------------------------------|
A|--/15--/17--15--14-14\-11-11\-7-7--|
E|-----------------------------------|
 
E|---------------------------------|
B|--/13--/15--13-------------------|
G|---------------------------------|
D|-------------------6\5/6---------|
A|--/15--/17--15-----7\6/7---------|
E|----------------0----------------|
 
 
E|-----------------------------------|
B|--/13--/15--13--12-12\--9-9\--5-5--|
G|-----------------------------------|
D|-----------------------------------|
A|--/15--/17--15--14-14\-11-11\-7-7--|
E|-----------------------------------|
 
 
E|---------------------------------|
B|--/13--/15-----------------------|
G|--/12--/14-------4---------------|
D|-------------------6\2-----------|
A|------------------7--------------|
E|----------------0----------------|
 
[Bridge]
 
 
E|--0--0--2--3-5-7-8--5--10\--|
B|--1--1--3--3-----5--7-------|
G|--2--0--2--2-----5--5-------|
D|--2--2--0--0-----5--7-------|
A|--0--0-----------7--5-------|
E|-----------------5----------|
 
[Chorus]
 
E|--0--2--3--2--0--2--0---------5--0--------B|--1--3--3--3--1--3--3-----2--(5)-3-----2---|
G|--0--2--0--2--0--2--0----0-------0----0------------------------------------------------|
D|--2--0--2--0--2--0--2---2--------2---2-------------------------------------------------|
A|--0-----0-----0-----2--0---------2--0--------------------------------------------------|
E|--------------------0------------0-----------------------------------------------------|
 
[Interlude]
 
E|------7--5--2--2--|
B|--7h8-8--5--2--4--|
G|--7h9-7--5--2--4--|
D|--7h9-9--7--4--4--|
A|--7---7-----------|
E|------------------|
 
E|-----3--------0--1--3---------------------|
B|--6--3--3--3--1--1--3--3--3--1------1-----|
G|--5--4--0--0--0--2--4--0--0--0------0-----|
D|--7--5--2--0--2--3--5--2--0--2------------|
A|--8--5--3--2--0--3--5--3--2--0--0-2-3--2--|
E|-----3-----------1--3---------------------|
 
Guitar solo:
 
E|-----------------------------------|
B|--15b17-16-15----------------------|
G|---------------14b16-14-12h13\--9--|
D|-----------------------------------|
A|-----------------------------------|
E|-----------------------------------|
 
 
E|-------------15--/14-----14\13\12------------|
B|-----------17--17---17-------------15\14\13--|
G|--12-14-17--------------11\10\9--------------|
D|---------------------------------/16\15\14---|
A|---------------------------------------------|
E|---------------------------------------------|
 
 
E|-----------15b17-------------------------------|
B|--17-18-17-------18b20--17---------------------|
G|--------------------------16-------------------|
D|-----------------------------18----------------|
A|-----------------------------------------------|
E|-----------------------------------------------|
 
 
E|---------------------------------------14\13\12--|
B|-----------------/14--12---15\14\13--------------|
G|----------/9-7---/13--11-------------/11\10\9----|
D|-----7-5---9--9------------16\15\14--------------|
A|--/7----7----------------------------------------|
E|-------------------------------------------------|
 
 
E|--19b21b19-17----------------------15--------------------|
B|-------------19b21b19-17--------------17-15-17-----------|
G|-------------------------17-16-----------------16-14-16--|
D|---------------------------------------------------------|
A|---------------------------------------------------------|
E|---------------------------------------------------------|
 
Guitar solo:
 
E|---------------------------------------------------------------|
B|-----------------------------------3-5-/8-5-3b2------3---------|
G|--2p0(0)2p0-2p0-2/4--2p0(0)2p0-2/4----------3b2-0-2/4---3p2p0--|
D|-------------------------------------------------------------2-|
A|---------------------------------------------------------------|
E|---------------------------------------------------------------|
 
 
E|----------------------------3---------------------------------|
B|--8-5--10/12-8--------3-2-3--3/5--7b8-7-5------5--------------|
G|--------------7h9-----2-------------------7-6-7---------------|
D|----------------------2---------------------------------------|
A|----------------------0---------------------------------------|
E|--------------------------------------------------------------|
 
E|--10p9p7------------------------------------------------------|
B|--------10p8p7------------------------------------------------|
G|--------------9p7p6-------------------------------------------|
D|------------------9p7p5--7/8\7-5------------------------------|
A|----------------------------------7-5-------------------------|
E|-------------------------------------5h6p5-3-0----------------|
 
E|--------------------10-12-0---/15-15--17/19-15----------------|
B|------------10-12-14----------/14-14----------17--------------|
G|--11-12-11-12-------------------------------------------------|
D|--------------------------------------------------------------|
A|--------------------------------------------------------------|
E|--------------------------------------------------------------|
 
E|--10h15p12p10----------14b15-14-12-14-12--12------------------|
B|-------------15/17-17-------------------15--15-14-15-14-12-14-|
G|--------------------------------------------------------------|
D|--------------------------------------------------------------|
A|--------------------------------------------------------------|
E|--------------------------------------------------------------|
 
E|--------------------------------------------------------------|
B|--------------------------------------------------------14b15-|
G|--14-12--12b13----------12--14/16-12-14--12--------12-14------|
D|---------------14--12/14---------------14-----12/14-----------|
A|--------------------------------------------------------------|
E|--------------------------------------------------------------|
 
E|--------------------------------------------------------------|
B|--14-12-------------------------------------------------------|
G|--------14-12-12----------------------------------------------|
D|----------------14--------------------------------------------|
A|--------------------------------------------------------------|
E|--------------------------------------------------------------|
            
Submit corrections

↑ Back to top | Tablatures and chords for acoustic guitar and electric guitar, ukulele, drums are parodies/interpretations of the original songs. You may use it for private study, scholarship, research or language learning purposes only